ISO-10303-21;
HEADER;
FILE_DESCRIPTION (( 'STEP AP203' ),
    '1' );
FILE_NAME ('200754.step',
    '2021-12-01T07:27:21',
    ( '' ),
    ( '' ),
    'SwSTEP 2.0',
    'SolidWorks 2019',
    '' );
FILE_SCHEMA (( 'CONFIG_CONTROL_DESIGN' ));
ENDSEC;

DATA;
#1 = LOCAL_TIME ( 8, 27, 21.00000000000000000, #171 ) ;
#2 = APPROVAL_DATE_TIME ( #106, #55 ) ;
#3 = DIRECTION ( 'NONE',  ( -3.491481338843133355E-15, 1.224646799147353207E-16, -1.000000000000000000 ) ) ;
#4 = PERSON_AND_ORGANIZATION_ROLE ( 'creator' ) ;
#5 = EDGE_CURVE ( 'NONE', #139, #139, #122, .T. ) ;
#6 = DIRECTION ( 'NONE',  ( 0.0000000000000000000, 1.000000000000000000, 0.0000000000000000000 ) ) ;
#7 = CC_DESIGN_APPROVAL ( #154, ( #78 ) ) ;
#8 = MANIFOLD_SOLID_BREP ( 'Corps-Déplacer/Copier1[1]', #245 ) ;
#9 = FACE_OUTER_BOUND ( 'NONE', #189, .T. ) ;
#10 = DIRECTION ( 'NONE',  ( 3.491481338843133355E-15, -1.224646799147353207E-16, 1.000000000000000000 ) ) ;
#11 = DIRECTION ( 'NONE',  ( 0.0000000000000000000, 1.000000000000000000, 0.0000000000000000000 ) ) ;
#12 = ADVANCED_BREP_SHAPE_REPRESENTATION ( '200754', ( #8, #197, #167 ), #84 ) ;
#13 = ORIENTED_EDGE ( 'NONE', *, *, #203, .T. ) ;
#14 = AXIS2_PLACEMENT_3D ( 'NONE', #162, #253, #119 ) ;
#15 = ORIENTED_EDGE ( 'NONE', *, *, #203, .F. ) ;
#16 = DATE_AND_TIME ( #100, #1 ) ;
#17 = EDGE_CURVE ( 'NONE', #268, #268, #233, .T. ) ;
#18 = EDGE_LOOP ( 'NONE', ( #211 ) ) ;
#19 = DIRECTION ( 'NONE',  ( 1.000000000000000000, 0.0000000000000000000, 0.0000000000000000000 ) ) ;
#20 = APPROVAL_STATUS ( 'not_yet_approved' ) ;
#21 = COORDINATED_UNIVERSAL_TIME_OFFSET ( 1, 0, .AHEAD. ) ;
#22 = DIRECTION ( 'NONE',  ( 4.275831445896958607E-31, 1.000000000000000000, 1.224646799147353454E-16 ) ) ;
#23 = CARTESIAN_POINT ( 'NONE',  ( -1.409643460065309571E-32, 4.944363677681800558E-34, -4.037379333473340862E-18 ) ) ;
#24 = PRODUCT_DEFINITION_SHAPE ( 'NONE', 'NONE',  #210 ) ;
#25 = CARTESIAN_POINT ( 'NONE',  ( 1.396592535537253342E-14, 2.587085625091693494E-33, 4.000000000000000000 ) ) ;
#26 = CC_DESIGN_APPROVAL ( #79, ( #81 ) ) ;
#27 = EDGE_LOOP ( 'NONE', ( #277 ) ) ;
#28 = CARTESIAN_POINT ( 'NONE',  ( -2.819286920130619143E-32, 9.888727355363601116E-34, -8.074758666946681724E-18 ) ) ;
#29 = FACE_OUTER_BOUND ( 'NONE', #235, .T. ) ;
#30 = DIRECTION ( 'NONE',  ( 4.275831445896959482E-31, 1.000000000000000000, 1.224646799147353207E-16 ) ) ;
#31 = DIRECTION ( 'NONE',  ( -4.186804226928784332E-31, -1.000000000000000000, -1.178480622266855668E-16 ) ) ;
#32 = EDGE_LOOP ( 'NONE', ( #15 ) ) ;
#33 = DATE_AND_TIME ( #231, #252 ) ;
#34 = CARTESIAN_POINT ( 'NONE',  ( 1.396592535537253342E-14, 0.3449999999999990297, 4.000000000000000000 ) ) ;
#35 = DESIGN_CONTEXT ( 'detailed design', #70, 'design' ) ;
#36 = ADVANCED_FACE ( 'NONE', ( #175, #183 ), #147, .T. ) ;
#37 = CIRCLE ( 'NONE', #270, 1.500000000000003331 ) ;
#38 = CARTESIAN_POINT ( 'NONE',  ( 1.326762908760390423E-13, -4.653657836759941941E-15, 38.00000000000000000 ) ) ;
#39 = PERSON_AND_ORGANIZATION ( #41, #202 ) ;
#40 = DIRECTION ( 'NONE',  ( -3.491481338843133355E-15, 1.224646799147353207E-16, -1.000000000000000000 ) ) ;
#41 = PERSON ( 'UNSPECIFIED', 'UNSPECIFIED', 'UNSPECIFIED', ('UNSPECIFIED'), ('UNSPECIFIED'), ('UNSPECIFIED') ) ;
#42 = LOCAL_TIME ( 8, 27, 21.00000000000000000, #21 ) ;
#43 = PERSON_AND_ORGANIZATION_ROLE ( 'creator' ) ;
#44 = COORDINATED_UNIVERSAL_TIME_OFFSET ( 1, 0, .AHEAD. ) ;
#45 = DIRECTION ( 'NONE',  ( -3.491481338843133355E-15, 1.224646799147353207E-16, -1.000000000000000000 ) ) ;
#46 = AXIS2_PLACEMENT_3D ( 'NONE', #251, #118, #205 ) ;
#47 = DIRECTION ( 'NONE',  ( -4.275831445896958607E-31, -1.000000000000000000, -1.224646799147353207E-16 ) ) ;
#48 = VERTEX_POINT ( 'NONE', #273 ) ;
#49 = DIRECTION ( 'NONE',  ( -3.491481338843133355E-15, 1.224646799147353207E-16, -1.000000000000000000 ) ) ;
#50 = CARTESIAN_POINT ( 'NONE',  ( 0.0000000000000000000, 0.0000000000000000000, 0.0000000000000000000 ) ) ;
#51 = AXIS2_PLACEMENT_3D ( 'NONE', #25, #10, #47 ) ;
#52 = EDGE_LOOP ( 'NONE', ( #169 ) ) ;
#53 = COORDINATED_UNIVERSAL_TIME_OFFSET ( 1, 0, .AHEAD. ) ;
#54 = DIRECTION ( 'NONE',  ( 0.0000000000000000000, -1.000000000000000000, 0.0000000000000000000 ) ) ;
#55 = APPROVAL ( #20, 'UNSPECIFIED' ) ;
#56 = CARTESIAN_POINT ( 'NONE',  ( 9.463679131915807877E-32, 0.2872649730810373225, 2.710505431213761085E-17 ) ) ;
#57 = CIRCLE ( 'NONE', #191, 1.499999999999997113 ) ;
#58 = COORDINATED_UNIVERSAL_TIME_OFFSET ( 1, 0, .AHEAD. ) ;
#59 =( NAMED_UNIT ( * ) PLANE_ANGLE_UNIT ( ) SI_UNIT ( $, .RADIAN. ) );
#60 = CC_DESIGN_APPROVAL ( #55, ( #210 ) ) ;
#61 = CARTESIAN_POINT ( 'NONE',  ( 1.396592535537253342E-14, 0.3449999999999990297, 4.000000000000000000 ) ) ;
#62 = CARTESIAN_POINT ( 'NONE',  ( 2.565294811559829736E-14, -8.997842963946611302E-16, 7.347296355333847728 ) ) ;
#63 = ADVANCED_FACE ( 'NONE', ( #113, #67 ), #117, .T. ) ;
#64 = AXIS2_PLACEMENT_3D ( 'NONE', #28, #75, #184 ) ;
#65 = CARTESIAN_POINT ( 'NONE',  ( 4.792165615382043372E-14, -1.680865429974247706E-15, 13.72530782871054633 ) ) ;
#66 = CARTESIAN_POINT ( 'NONE',  ( 1.326762908760390423E-13, 1.199999999999998845, 38.00000000000000000 ) ) ;
#67 = FACE_OUTER_BOUND ( 'NONE', #247, .T. ) ;
#68 = FACE_OUTER_BOUND ( 'NONE', #69, .T. ) ;
#69 = EDGE_LOOP ( 'NONE', ( #102 ) ) ;
#70 = APPLICATION_CONTEXT ( 'configuration controlled 3d designs of mechanical parts and assemblies' ) ;
#71 = FACE_OUTER_BOUND ( 'NONE', #168, .T. ) ;
#72 = DIRECTION ( 'NONE',  ( 0.0000000000000000000, 1.000000000000000000, 0.0000000000000000000 ) ) ;
#73 = AXIS2_PLACEMENT_3D ( 'NONE', #38, #40, #83 ) ;
#74 = SECURITY_CLASSIFICATION_LEVEL ( 'unclassified' ) ;
#75 = DIRECTION ( 'NONE',  ( -3.491481338843133355E-15, 1.224646799147353207E-16, -1.000000000000000000 ) ) ;
#76 = EDGE_CURVE ( 'NONE', #155, #155, #57, .T. ) ;
#77 = ORIENTED_EDGE ( 'NONE', *, *, #17, .T. ) ;
#78 = PRODUCT_DEFINITION_FORMATION_WITH_SPECIFIED_SOURCE ( 'ANY', '', #146, .NOT_KNOWN. ) ;
#79 = APPROVAL ( #153, 'UNSPECIFIED' ) ;
#80 = EDGE_LOOP ( 'NONE', ( #170 ) ) ;
#81 = SECURITY_CLASSIFICATION ( '', '', #74 ) ;
#82 = AXIS2_PLACEMENT_3D ( 'NONE', #23, #226, #201 ) ;
#83 = DIRECTION ( 'NONE',  ( 0.0000000000000000000, 1.000000000000000000, 0.0000000000000000000 ) ) ;
#84 =( GEOMETRIC_REPRESENTATION_CONTEXT ( 3 ) GLOBAL_UNCERTAINTY_ASSIGNED_CONTEXT ( ( #157 ) ) GLOBAL_UNIT_ASSIGNED_CONTEXT ( ( #143, #59, #125 ) ) REPRESENTATION_CONTEXT ( 'NONE', 'WORKASPACE' ) );
#85 = DATE_AND_TIME ( #128, #207 ) ;
#86 = EDGE_CURVE ( 'NONE', #48, #48, #37, .T. ) ;
#87 = DIRECTION ( 'NONE',  ( -3.491481338843133355E-15, 1.224646799147353207E-16, -1.000000000000000000 ) ) ;
#88 = DIRECTION ( 'NONE',  ( -3.491481338843133355E-15, 1.224646799147353207E-16, -1.000000000000000000 ) ) ;
#89 = LOCAL_TIME ( 8, 27, 21.00000000000000000, #44 ) ;
#90 = FACE_OUTER_BOUND ( 'NONE', #32, .T. ) ;
#91 = CARTESIAN_POINT ( 'NONE',  ( 1.316288464743861212E-13, -4.616918432785521081E-15, 37.69999999999999574 ) ) ;
#92 = CARTESIAN_POINT ( 'NONE',  ( 1.326762908760390423E-13, -4.653657836759941941E-15, 38.00000000000000000 ) ) ;
#93 = DIRECTION ( 'NONE',  ( 3.491481338843133355E-15, -1.224646799147353207E-16, 1.000000000000000000 ) ) ;
#94 = AXIS2_PLACEMENT_3D ( 'NONE', #229, #88, #30 ) ;
#95 = CARTESIAN_POINT ( 'NONE',  ( 4.792165615382043372E-14, -1.680865429974247706E-15, 13.72530782871054633 ) ) ;
#96 = ADVANCED_FACE ( 'NONE', ( #131 ), #156, .T. ) ;
#97 = ORIENTED_EDGE ( 'NONE', *, *, #86, .T. ) ;
#98 = CC_DESIGN_DATE_AND_TIME_ASSIGNMENT ( #33, #121, ( #81 ) ) ;
#99 = EDGE_LOOP ( 'NONE', ( #187 ) ) ;
#100 = CALENDAR_DATE ( 2021, 1, 12 ) ;
#101 = EDGE_CURVE ( 'NONE', #134, #134, #164, .T. ) ;
#102 = ORIENTED_EDGE ( 'NONE', *, *, #101, .T. ) ;
#103 = SHAPE_DEFINITION_REPRESENTATION ( #24, #12 ) ;
#104 = APPLICATION_CONTEXT ( 'configuration controlled 3d designs of mechanical parts and assemblies' ) ;
#105 = EDGE_LOOP ( 'NONE', ( #97 ) ) ;
#106 = DATE_AND_TIME ( #194, #42 ) ;
#107 = ADVANCED_FACE ( 'NONE', ( #221 ), #243, .F. ) ;
#108 = APPROVAL_ROLE ( '' ) ;
#109 = ADVANCED_FACE ( 'NONE', ( #90, #135 ), #151, .T. ) ;
#110 = MECHANICAL_CONTEXT ( 'NONE', #104, 'mechanical' ) ;
#111 = CC_DESIGN_PERSON_AND_ORGANIZATION_ASSIGNMENT ( #220, #4, ( #78 ) ) ;
#112 = AXIS2_PLACEMENT_3D ( 'NONE', #149, #49, #265 ) ;
#113 = FACE_BOUND ( 'NONE', #193, .T. ) ;
#114 = DIRECTION ( 'NONE',  ( 3.491481338843133355E-15, -1.224646799147353207E-16, 1.000000000000000000 ) ) ;
#115 = DIRECTION ( 'NONE',  ( -3.491481338843133355E-15, 1.224646799147353207E-16, -1.000000000000000000 ) ) ;
#116 = FACE_OUTER_BOUND ( 'NONE', #27, .T. ) ;
#117 = CONICAL_SURFACE ( 'NONE', #279, 0.3449999999999991407, 0.5235987755982931535 ) ;
#118 = DIRECTION ( 'NONE',  ( -3.491481338843133355E-15, 1.224646799147353207E-16, -1.000000000000000000 ) ) ;
#119 = DIRECTION ( 'NONE',  ( 4.275831445896959482E-31, 1.000000000000000000, 1.224646799147353207E-16 ) ) ;
#120 = ORIENTED_EDGE ( 'NONE', *, *, #101, .F. ) ;
#121 = DATE_TIME_ROLE ( 'classification_date' ) ;
#122 = CIRCLE ( 'NONE', #264, 0.3449999999999994738 ) ;
#123 = AXIS2_PLACEMENT_3D ( 'NONE', #276, #185, #72 ) ;
#124 = PERSON_AND_ORGANIZATION_ROLE ( 'design_owner' ) ;
#125 =( NAMED_UNIT ( * ) SI_UNIT ( $, .STERADIAN. ) SOLID_ANGLE_UNIT ( ) );
#126 = PERSON_AND_ORGANIZATION ( #41, #202 ) ;
#127 = VERTEX_POINT ( 'NONE', #56 ) ;
#128 = CALENDAR_DATE ( 2021, 1, 12 ) ;
#129 = CALENDAR_DATE ( 2021, 1, 12 ) ;
#130 = DIRECTION ( 'NONE',  ( -3.491481338843133355E-15, 1.224646799147353207E-16, -1.000000000000000000 ) ) ;
#131 = FACE_OUTER_BOUND ( 'NONE', #18, .T. ) ;
#132 = TOROIDAL_SURFACE ( 'NONE', #46, 2.344999999999999751, 2.000000000000000000 ) ;
#133 = PLANE ( 'NONE',  #172 ) ;
#134 = VERTEX_POINT ( 'NONE', #250 ) ;
#135 = FACE_OUTER_BOUND ( 'NONE', #52, .T. ) ;
#136 = DIRECTION ( 'NONE',  ( -3.491481338843133355E-15, 1.224646799147353207E-16, -1.000000000000000000 ) ) ;
#137 = FACE_OUTER_BOUND ( 'NONE', #105, .T. ) ;
#138 = EDGE_LOOP ( 'NONE', ( #77 ) ) ;
#139 = VERTEX_POINT ( 'NONE', #34 ) ;
#140 = APPROVAL_PERSON_ORGANIZATION ( #177, #79, #142 ) ;
#141 = APPROVAL_PERSON_ORGANIZATION ( #198, #55, #108 ) ;
#142 = APPROVAL_ROLE ( '' ) ;
#143 =( LENGTH_UNIT ( ) NAMED_UNIT ( * ) SI_UNIT ( .MILLI., .METRE. ) );
#144 = CC_DESIGN_PERSON_AND_ORGANIZATION_ASSIGNMENT ( #166, #179, ( #81 ) ) ;
#145 = AXIS2_PLACEMENT_3D ( 'NONE', #95, #93, #54 ) ;
#146 = PRODUCT ( '200754', '200754', '', ( #110 ) ) ;
#147 = CONICAL_SURFACE ( 'NONE', #254, 1.200000000000003286, 0.7853981633974453924 ) ;
#148 = APPROVAL_STATUS ( 'not_yet_approved' ) ;
#149 = CARTESIAN_POINT ( 'NONE',  ( 1.326762908760390423E-13, 8.998558695971103225E-33, 38.00000000000000000 ) ) ;
#150 = EDGE_CURVE ( 'NONE', #180, #180, #258, .T. ) ;
#151 = CYLINDRICAL_SURFACE ( 'NONE', #186, 0.3449999999999996403 ) ;
#152 = ORIENTED_EDGE ( 'NONE', *, *, #150, .F. ) ;
#153 = APPROVAL_STATUS ( 'not_yet_approved' ) ;
#154 = APPROVAL ( #148, 'UNSPECIFIED' ) ;
#155 = VERTEX_POINT ( 'NONE', #248 ) ;
#156 = PLANE ( 'NONE',  #51 ) ;
#157 = UNCERTAINTY_MEASURE_WITH_UNIT (LENGTH_MEASURE( 1.000000000000000082E-05 ), #143, 'distance_accuracy_value', 'NONE');
#158 = CYLINDRICAL_SURFACE ( 'NONE', #14, 1.500000000000000222 ) ;
#159 = EDGE_LOOP ( 'NONE', ( #232 ) ) ;
#160 = CYLINDRICAL_SURFACE ( 'NONE', #94, 0.3449999999999992517 ) ;
#161 = CC_DESIGN_PERSON_AND_ORGANIZATION_ASSIGNMENT ( #39, #124, ( #146 ) ) ;
#162 = CARTESIAN_POINT ( 'NONE',  ( 0.0000000000000000000, 0.0000000000000000000, 0.0000000000000000000 ) ) ;
#163 = FACE_OUTER_BOUND ( 'NONE', #208, .T. ) ;
#164 = CIRCLE ( 'NONE', #236, 0.3753844939755814902 ) ;
#165 = FACE_BOUND ( 'NONE', #230, .T. ) ;
#166 = PERSON_AND_ORGANIZATION ( #41, #202 ) ;
#167 = AXIS2_PLACEMENT_3D ( 'NONE', #214, #216, #19 ) ;
#168 = EDGE_LOOP ( 'NONE', ( #234 ) ) ;
#169 = ORIENTED_EDGE ( 'NONE', *, *, #215, .T. ) ;
#170 = ORIENTED_EDGE ( 'NONE', *, *, #215, .F. ) ;
#171 = COORDINATED_UNIVERSAL_TIME_OFFSET ( 1, 0, .AHEAD. ) ;
#172 = AXIS2_PLACEMENT_3D ( 'NONE', #223, #225, #204 ) ;
#173 = ADVANCED_FACE ( 'NONE', ( #29 ), #133, .F. ) ;
#174 = DATE_TIME_ROLE ( 'creation_date' ) ;
#175 = FACE_OUTER_BOUND ( 'NONE', #257, .T. ) ;
#176 = CARTESIAN_POINT ( 'NONE',  ( 3.491481338843132369E-16, -1.224646799147352807E-17, 0.09999999999999996392 ) ) ;
#177 = PERSON_AND_ORGANIZATION ( #41, #202 ) ;
#178 = DIRECTION ( 'NONE',  ( 0.0000000000000000000, 1.000000000000000000, 0.0000000000000000000 ) ) ;
#179 = PERSON_AND_ORGANIZATION_ROLE ( 'classification_officer' ) ;
#180 = VERTEX_POINT ( 'NONE', #224 ) ;
#181 = FACE_OUTER_BOUND ( 'NONE', #80, .T. ) ;
#182 = ADVANCED_FACE ( 'NONE', ( #9 ), #271, .F. ) ;
#183 = FACE_BOUND ( 'NONE', #138, .T. ) ;
#184 = DIRECTION ( 'NONE',  ( 4.275831445896958607E-31, 1.000000000000000000, 1.224646799147352961E-16 ) ) ;
#185 = DIRECTION ( 'NONE',  ( -3.491481338843133355E-15, 1.224646799147353207E-16, -1.000000000000000000 ) ) ;
#186 = AXIS2_PLACEMENT_3D ( 'NONE', #50, #136, #22 ) ;
#187 = ORIENTED_EDGE ( 'NONE', *, *, #17, .F. ) ;
#188 = ADVANCED_FACE ( 'NONE', ( #181, #68 ), #132, .F. ) ;
#189 = EDGE_LOOP ( 'NONE', ( #272 ) ) ;
#190 = CC_DESIGN_SECURITY_CLASSIFICATION ( #81, ( #78 ) ) ;
#191 = AXIS2_PLACEMENT_3D ( 'NONE', #65, #45, #6 ) ;
#192 = APPROVAL_DATE_TIME ( #16, #79 ) ;
#193 = EDGE_LOOP ( 'NONE', ( #249 ) ) ;
#194 = CALENDAR_DATE ( 2021, 1, 12 ) ;
#195 = CIRCLE ( 'NONE', #123, 0.3449999999999998068 ) ;
#196 = APPROVAL_DATE_TIME ( #242, #154 ) ;
#197 = MANIFOLD_SOLID_BREP ( 'Corps-Déplacer/Copier1[2]', #240 ) ;
#198 = PERSON_AND_ORGANIZATION ( #41, #202 ) ;
#199 = ADVANCED_FACE ( 'NONE', ( #71, #137 ), #158, .T. ) ;
#200 = DIRECTION ( 'NONE',  ( -3.491481338843133355E-15, 1.224646799147353207E-16, -1.000000000000000000 ) ) ;
#201 = DIRECTION ( 'NONE',  ( -4.275831445896958607E-31, -1.000000000000000000, -1.224646799147353207E-16 ) ) ;
#202 = ORGANIZATION ( 'UNSPECIFIED', 'UNSPECIFIED', '' ) ;
#203 = EDGE_CURVE ( 'NONE', #212, #212, #209, .T. ) ;
#204 = DIRECTION ( 'NONE',  ( -4.275831445896958607E-31, -1.000000000000000000, -1.224646799147353207E-16 ) ) ;
#205 = DIRECTION ( 'NONE',  ( 4.398065252126001425E-31, 1.000000000000000000, 1.224646799147353207E-16 ) ) ;
#206 = CARTESIAN_POINT ( 'NONE',  ( 1.396592535537253342E-14, -4.898587196589412829E-16, 4.000000000000000000 ) ) ;
#207 = LOCAL_TIME ( 8, 27, 21.00000000000000000, #58 ) ;
#208 = EDGE_LOOP ( 'NONE', ( #152 ) ) ;
#209 = CIRCLE ( 'NONE', #246, 0.3449999999999994738 ) ;
#210 = PRODUCT_DEFINITION ( 'UNKNOWN', '', #78, #35 ) ;
#211 = ORIENTED_EDGE ( 'NONE', *, *, #5, .F. ) ;
#212 = VERTEX_POINT ( 'NONE', #61 ) ;
#213 = CONICAL_SURFACE ( 'NONE', #145, 1.499999999999997113, 0.1745329251994260367 ) ;
#214 = CARTESIAN_POINT ( 'NONE',  ( 0.0000000000000000000, 0.0000000000000000000, 0.0000000000000000000 ) ) ;
#215 = EDGE_CURVE ( 'NONE', #218, #218, #195, .T. ) ;
#216 = DIRECTION ( 'NONE',  ( 0.0000000000000000000, 0.0000000000000000000, 1.000000000000000000 ) ) ;
#217 = CC_DESIGN_DATE_AND_TIME_ASSIGNMENT ( #85, #174, ( #210 ) ) ;
#218 = VERTEX_POINT ( 'NONE', #261 ) ;
#219 = APPLICATION_PROTOCOL_DEFINITION ( 'international standard', 'config_control_design', 1994, #104 ) ;
#220 = PERSON_AND_ORGANIZATION ( #41, #202 ) ;
#221 = FACE_OUTER_BOUND ( 'NONE', #99, .T. ) ;
#222 = AXIS2_PLACEMENT_3D ( 'NONE', #176, #3, #266 ) ;
#223 = CARTESIAN_POINT ( 'NONE',  ( 1.396592535537253342E-14, 2.587085625091693494E-33, 4.000000000000000000 ) ) ;
#224 = CARTESIAN_POINT ( 'NONE',  ( 3.491481338843133848E-16, 0.3449999999999991407, 0.1000000000000000056 ) ) ;
#225 = DIRECTION ( 'NONE',  ( 3.491481338843133355E-15, -1.224646799147353207E-16, 1.000000000000000000 ) ) ;
#226 = DIRECTION ( 'NONE',  ( 3.491481338843133355E-15, -1.224646799147353207E-16, 1.000000000000000000 ) ) ;
#227 = CC_DESIGN_PERSON_AND_ORGANIZATION_ASSIGNMENT ( #260, #43, ( #210 ) ) ;
#228 = DIRECTION ( 'NONE',  ( -3.491481338843133355E-15, 1.224646799147353207E-16, -1.000000000000000000 ) ) ;
#229 = CARTESIAN_POINT ( 'NONE',  ( 0.0000000000000000000, 0.0000000000000000000, 0.0000000000000000000 ) ) ;
#230 = EDGE_LOOP ( 'NONE', ( #120 ) ) ;
#231 = CALENDAR_DATE ( 2021, 1, 12 ) ;
#232 = ORIENTED_EDGE ( 'NONE', *, *, #76, .T. ) ;
#233 = CIRCLE ( 'NONE', #73, 1.200000000000003286 ) ;
#234 = ORIENTED_EDGE ( 'NONE', *, *, #76, .F. ) ;
#235 = EDGE_LOOP ( 'NONE', ( #13 ) ) ;
#236 = AXIS2_PLACEMENT_3D ( 'NONE', #62, #115, #274 ) ;
#237 = DIRECTION ( 'NONE',  ( 0.0000000000000000000, 1.000000000000000000, 0.0000000000000000000 ) ) ;
#238 = CIRCLE ( 'NONE', #64, 0.2872649730810373225 ) ;
#239 = APPLICATION_PROTOCOL_DEFINITION ( 'international standard', 'config_control_design', 1994, #70 ) ;
#240 = CLOSED_SHELL ( 'NONE', ( #182, #63, #282, #96 ) ) ;
#241 = APPROVAL_ROLE ( '' ) ;
#242 = DATE_AND_TIME ( #129, #89 ) ;
#243 = PLANE ( 'NONE',  #112 ) ;
#244 = CARTESIAN_POINT ( 'NONE',  ( 3.491481338843132369E-16, -1.224646799147352807E-17, 0.09999999999999996392 ) ) ;
#245 = CLOSED_SHELL ( 'NONE', ( #173, #109, #188, #259, #199, #36, #107 ) ) ;
#246 = AXIS2_PLACEMENT_3D ( 'NONE', #206, #228, #11 ) ;
#247 = EDGE_LOOP ( 'NONE', ( #281 ) ) ;
#248 = CARTESIAN_POINT ( 'NONE',  ( 4.792165615382043372E-14, 1.499999999999995559, 13.72530782871054633 ) ) ;
#249 = ORIENTED_EDGE ( 'NONE', *, *, #262, .F. ) ;
#250 = CARTESIAN_POINT ( 'NONE',  ( 2.565294811559829736E-14, 0.3753844939755806021, 7.347296355333847728 ) ) ;
#251 = CARTESIAN_POINT ( 'NONE',  ( 2.444036937190193349E-14, -8.673617379884035472E-16, 7.000000000000000000 ) ) ;
#252 = LOCAL_TIME ( 8, 27, 21.00000000000000000, #53 ) ;
#253 = DIRECTION ( 'NONE',  ( -3.491481338843133355E-15, 1.224646799147353207E-16, -1.000000000000000000 ) ) ;
#254 = AXIS2_PLACEMENT_3D ( 'NONE', #92, #87, #178 ) ;
#255 = FACE_OUTER_BOUND ( 'NONE', #159, .T. ) ;
#256 = CC_DESIGN_PERSON_AND_ORGANIZATION_ASSIGNMENT ( #126, #267, ( #78 ) ) ;
#257 = EDGE_LOOP ( 'NONE', ( #280 ) ) ;
#258 = CIRCLE ( 'NONE', #222, 0.3449999999999991407 ) ;
#259 = ADVANCED_FACE ( 'NONE', ( #165, #255 ), #213, .T. ) ;
#260 = PERSON_AND_ORGANIZATION ( #41, #202 ) ;
#261 = CARTESIAN_POINT ( 'NONE',  ( 2.444036937190193349E-14, 0.3449999999999989742, 7.000000000000000000 ) ) ;
#262 = EDGE_CURVE ( 'NONE', #127, #127, #238, .T. ) ;
#263 = PERSON_AND_ORGANIZATION ( #41, #202 ) ;
#264 = AXIS2_PLACEMENT_3D ( 'NONE', #278, #130, #237 ) ;
#265 = DIRECTION ( 'NONE',  ( 4.275831445896958607E-31, 1.000000000000000000, 1.224646799147353207E-16 ) ) ;
#266 = DIRECTION ( 'NONE',  ( 4.186804226928784332E-31, 1.000000000000000000, 1.178480622266855668E-16 ) ) ;
#267 = PERSON_AND_ORGANIZATION_ROLE ( 'design_supplier' ) ;
#268 = VERTEX_POINT ( 'NONE', #66 ) ;
#269 = DIRECTION ( 'NONE',  ( 0.0000000000000000000, 1.000000000000000000, 0.0000000000000000000 ) ) ;
#270 = AXIS2_PLACEMENT_3D ( 'NONE', #91, #200, #269 ) ;
#271 = PLANE ( 'NONE',  #82 ) ;
#272 = ORIENTED_EDGE ( 'NONE', *, *, #262, .T. ) ;
#273 = CARTESIAN_POINT ( 'NONE',  ( 1.316288464743861212E-13, 1.499999999999998668, 37.69999999999999574 ) ) ;
#274 = DIRECTION ( 'NONE',  ( 0.0000000000000000000, 1.000000000000000000, 0.0000000000000000000 ) ) ;
#275 = APPROVAL_PERSON_ORGANIZATION ( #263, #154, #241 ) ;
#276 = CARTESIAN_POINT ( 'NONE',  ( 2.444036937190193349E-14, -8.572527594031473190E-16, 7.000000000000000000 ) ) ;
#277 = ORIENTED_EDGE ( 'NONE', *, *, #5, .T. ) ;
#278 = CARTESIAN_POINT ( 'NONE',  ( 1.396592535537253342E-14, -4.898587196589412829E-16, 4.000000000000000000 ) ) ;
#279 = AXIS2_PLACEMENT_3D ( 'NONE', #244, #114, #31 ) ;
#280 = ORIENTED_EDGE ( 'NONE', *, *, #86, .F. ) ;
#281 = ORIENTED_EDGE ( 'NONE', *, *, #150, .T. ) ;
#282 = ADVANCED_FACE ( 'NONE', ( #163, #116 ), #160, .T. ) ;
#283 = PRODUCT_RELATED_PRODUCT_CATEGORY ( 'detail', '', ( #146 ) ) ;
ENDSEC;
END-ISO-10303-21;
