ISO-10303-21;
HEADER;
FILE_DESCRIPTION (( 'STEP AP203' ),
    '1' );
FILE_NAME ('200753.step',
    '2021-12-01T07:27:21',
    ( '' ),
    ( '' ),
    'SwSTEP 2.0',
    'SolidWorks 2019',
    '' );
FILE_SCHEMA (( 'CONFIG_CONTROL_DESIGN' ));
ENDSEC;

DATA;
#1 = ORIENTED_EDGE ( 'NONE', *, *, #52, .T. ) ;
#2 = CIRCLE ( 'NONE', #227, 0.3350000000000002420 ) ;
#3 = DIRECTION ( 'NONE',  ( 0.0000000000000000000, -1.000000000000000000, 0.0000000000000000000 ) ) ;
#4 = PERSON_AND_ORGANIZATION ( #177, #138 ) ;
#5 = VERTEX_POINT ( 'NONE', #86 ) ;
#6 = CARTESIAN_POINT ( 'NONE',  ( 1.396592535537253342E-14, 0.3349999999999992428, 4.000000000000000000 ) ) ;
#7 = CARTESIAN_POINT ( 'NONE',  ( 4.811966790022560238E-14, -1.687810747101705480E-15, 13.78202064690672479 ) ) ;
#8 = CYLINDRICAL_SURFACE ( 'NONE', #125, 1.500000000000000222 ) ;
#9 = PERSON_AND_ORGANIZATION ( #177, #138 ) ;
#10 = PERSON_AND_ORGANIZATION ( #177, #138 ) ;
#11 = ADVANCED_FACE ( 'NONE', ( #121 ), #208, .F. ) ;
#12 = ORIENTED_EDGE ( 'NONE', *, *, #221, .T. ) ;
#13 = AXIS2_PLACEMENT_3D ( 'NONE', #16, #43, #100 ) ;
#14 = APPROVAL_PERSON_ORGANIZATION ( #61, #220, #85 ) ;
#15 = FACE_OUTER_BOUND ( 'NONE', #55, .T. ) ;
#16 = CARTESIAN_POINT ( 'NONE',  ( 0.0000000000000000000, 0.0000000000000000000, 0.0000000000000000000 ) ) ;
#17 = AXIS2_PLACEMENT_3D ( 'NONE', #251, #203, #152 ) ;
#18 = DIRECTION ( 'NONE',  ( -4.275831445896958607E-31, -1.000000000000000000, -1.224646799147353207E-16 ) ) ;
#19 = CARTESIAN_POINT ( 'NONE',  ( 1.396592535537253342E-14, -4.898587196589412829E-16, 4.000000000000000000 ) ) ;
#20 = AXIS2_PLACEMENT_3D ( 'NONE', #219, #25, #202 ) ;
#21 = CALENDAR_DATE ( 2021, 1, 12 ) ;
#22 = CARTESIAN_POINT ( 'NONE',  ( 3.491481338843134341E-16, 0.3349999999999991318, 0.1000000000000000194 ) ) ;
#23 = CC_DESIGN_DATE_AND_TIME_ASSIGNMENT ( #127, #199, ( #216 ) ) ;
#24 = DIRECTION ( 'NONE',  ( -3.491481338843133355E-15, 1.224646799147353207E-16, -1.000000000000000000 ) ) ;
#25 = DIRECTION ( 'NONE',  ( -3.491481338843133355E-15, 1.224646799147353207E-16, -1.000000000000000000 ) ) ;
#26 = APPROVAL ( #265, 'UNSPECIFIED' ) ;
#27 = CARTESIAN_POINT ( 'NONE',  ( -1.185538290745673547E-31, 4.158308557677624800E-33, -3.395516617993695132E-17 ) ) ;
#28 = DIRECTION ( 'NONE',  ( -3.491481338843133355E-15, 1.224646799147353207E-16, -1.000000000000000000 ) ) ;
#29 = APPLICATION_PROTOCOL_DEFINITION ( 'international standard', 'config_control_design', 1994, #257 ) ;
#30 = UNCERTAINTY_MEASURE_WITH_UNIT (LENGTH_MEASURE( 1.000000000000000082E-05 ), #224, 'distance_accuracy_value', 'NONE');
#31 = AXIS2_PLACEMENT_3D ( 'NONE', #235, #39, #283 ) ;
#32 = EDGE_LOOP ( 'NONE', ( #228 ) ) ;
#33 = ORIENTED_EDGE ( 'NONE', *, *, #153, .T. ) ;
#34 = EDGE_LOOP ( 'NONE', ( #51 ) ) ;
#35 = AXIS2_PLACEMENT_3D ( 'NONE', #19, #60, #187 ) ;
#36 = CALENDAR_DATE ( 2021, 1, 12 ) ;
#37 = ORIENTED_EDGE ( 'NONE', *, *, #101, .T. ) ;
#38 = DATE_AND_TIME ( #36, #238 ) ;
#39 = DIRECTION ( 'NONE',  ( -3.491481338843133355E-15, 1.224646799147353207E-16, -1.000000000000000000 ) ) ;
#40 = EDGE_LOOP ( 'NONE', ( #276 ) ) ;
#41 = CARTESIAN_POINT ( 'NONE',  ( 0.0000000000000000000, 0.0000000000000000000, 0.0000000000000000000 ) ) ;
#42 = CC_DESIGN_DATE_AND_TIME_ASSIGNMENT ( #38, #123, ( #130 ) ) ;
#43 = DIRECTION ( 'NONE',  ( -3.491481338843133355E-15, 1.224646799147353207E-16, -1.000000000000000000 ) ) ;
#44 = CLOSED_SHELL ( 'NONE', ( #11, #96, #195, #140, #250, #150, #179 ) ) ;
#45 = PRODUCT ( '200753', '200753', '', ( #97 ) ) ;
#46 = APPROVAL_ROLE ( '' ) ;
#47 = SECURITY_CLASSIFICATION_LEVEL ( 'unclassified' ) ;
#48 = DIRECTION ( 'NONE',  ( 0.0000000000000000000, 1.000000000000000000, 0.0000000000000000000 ) ) ;
#49 = CARTESIAN_POINT ( 'NONE',  ( 1.316288464743861212E-13, 1.499999999999998668, 37.69999999999999574 ) ) ;
#50 = CONICAL_SURFACE ( 'NONE', #57, 1.499999999999997113, 0.1745329251994260089 ) ;
#51 = ORIENTED_EDGE ( 'NONE', *, *, #168, .F. ) ;
#52 = EDGE_CURVE ( 'NONE', #274, #274, #111, .T. ) ;
#53 = CIRCLE ( 'NONE', #132, 1.499999999999997113 ) ;
#54 = PRODUCT_DEFINITION_FORMATION_WITH_SPECIFIED_SOURCE ( 'ANY', '', #45, .NOT_KNOWN. ) ;
#55 = EDGE_LOOP ( 'NONE', ( #122 ) ) ;
#56 = ORIENTED_EDGE ( 'NONE', *, *, #153, .F. ) ;
#57 = AXIS2_PLACEMENT_3D ( 'NONE', #167, #209, #3 ) ;
#58 = DIRECTION ( 'NONE',  ( -3.491481338843133355E-15, 1.224646799147353207E-16, -1.000000000000000000 ) ) ;
#59 = ORIENTED_EDGE ( 'NONE', *, *, #205, .F. ) ;
#60 = DIRECTION ( 'NONE',  ( -3.491481338843133355E-15, 1.224646799147353207E-16, -1.000000000000000000 ) ) ;
#61 = PERSON_AND_ORGANIZATION ( #177, #138 ) ;
#62 = ADVANCED_FACE ( 'NONE', ( #212 ), #280, .T. ) ;
#63 = ORIENTED_EDGE ( 'NONE', *, *, #52, .F. ) ;
#64 = FACE_OUTER_BOUND ( 'NONE', #34, .T. ) ;
#65 = PERSON_AND_ORGANIZATION_ROLE ( 'classification_officer' ) ;
#66 = FACE_OUTER_BOUND ( 'NONE', #80, .T. ) ;
#67 = SHAPE_DEFINITION_REPRESENTATION ( #133, #258 ) ;
#68 = CARTESIAN_POINT ( 'NONE',  ( 1.326762908760390423E-13, 1.199999999999998845, 38.00000000000000000 ) ) ;
#69 = DIRECTION ( 'NONE',  ( 4.275831445896958607E-31, 1.000000000000000000, 1.224646799147353207E-16 ) ) ;
#70 = CIRCLE ( 'NONE', #94, 0.2772649730810374247 ) ;
#71 = LOCAL_TIME ( 8, 27, 21.00000000000000000, #90 ) ;
#72 = CARTESIAN_POINT ( 'NONE',  ( 1.396592535537253342E-14, -4.898587196589412829E-16, 4.000000000000000000 ) ) ;
#73 = CALENDAR_DATE ( 2021, 1, 12 ) ;
#74 = CC_DESIGN_PERSON_AND_ORGANIZATION_ASSIGNMENT ( #10, #225, ( #45 ) ) ;
#75 = ORIENTED_EDGE ( 'NONE', *, *, #229, .T. ) ;
#76 = EDGE_LOOP ( 'NONE', ( #1 ) ) ;
#77 = CIRCLE ( 'NONE', #186, 1.200000000000003286 ) ;
#78 = FACE_OUTER_BOUND ( 'NONE', #231, .T. ) ;
#79 = PERSON_AND_ORGANIZATION ( #177, #138 ) ;
#80 = EDGE_LOOP ( 'NONE', ( #59 ) ) ;
#81 = DIRECTION ( 'NONE',  ( -3.491481338843133355E-15, 1.224646799147353207E-16, -1.000000000000000000 ) ) ;
#82 = FACE_OUTER_BOUND ( 'NONE', #240, .T. ) ;
#83 = AXIS2_PLACEMENT_3D ( 'NONE', #223, #273, #175 ) ;
#84 = FACE_OUTER_BOUND ( 'NONE', #213, .T. ) ;
#85 = APPROVAL_ROLE ( '' ) ;
#86 = CARTESIAN_POINT ( 'NONE',  ( 2.444036937190193349E-14, 0.3349999999999993539, 7.000000000000000000 ) ) ;
#87 = MANIFOLD_SOLID_BREP ( 'Corps-Déplacer/Copier1[2]', #237 ) ;
#88 = CARTESIAN_POINT ( 'NONE',  ( 0.0000000000000000000, 0.2772649730810374247, 0.0000000000000000000 ) ) ;
#89 = CC_DESIGN_SECURITY_CLASSIFICATION ( #216, ( #54 ) ) ;
#90 = COORDINATED_UNIVERSAL_TIME_OFFSET ( 1, 0, .AHEAD. ) ;
#91 = VERTEX_POINT ( 'NONE', #68 ) ;
#92 = DIRECTION ( 'NONE',  ( 0.0000000000000000000, 1.000000000000000000, 0.0000000000000000000 ) ) ;
#93 = PLANE ( 'NONE',  #210 ) ;
#94 = AXIS2_PLACEMENT_3D ( 'NONE', #27, #197, #69 ) ;
#95 = DATE_AND_TIME ( #73, #182 ) ;
#96 = ADVANCED_FACE ( 'NONE', ( #191, #239 ), #105, .T. ) ;
#97 = MECHANICAL_CONTEXT ( 'NONE', #114, 'mechanical' ) ;
#98 = ORIENTED_EDGE ( 'NONE', *, *, #211, .T. ) ;
#99 = APPLICATION_PROTOCOL_DEFINITION ( 'international standard', 'config_control_design', 1994, #114 ) ;
#100 = DIRECTION ( 'NONE',  ( 4.275831445896958607E-31, 1.000000000000000000, 1.224646799147353207E-16 ) ) ;
#101 = EDGE_CURVE ( 'NONE', #91, #91, #77, .T. ) ;
#102 = CIRCLE ( 'NONE', #193, 0.3349999999999997424 ) ;
#103 = FACE_BOUND ( 'NONE', #159, .T. ) ;
#104 = DIRECTION ( 'NONE',  ( 0.0000000000000000000, 1.000000000000000000, 0.0000000000000000000 ) ) ;
#105 = CYLINDRICAL_SURFACE ( 'NONE', #145, 0.3350000000000000200 ) ;
#106 = ADVANCED_FACE ( 'NONE', ( #82 ), #143, .F. ) ;
#107 = DATE_AND_TIME ( #268, #118 ) ;
#108 = FACE_OUTER_BOUND ( 'NONE', #136, .T. ) ;
#109 = DIRECTION ( 'NONE',  ( -3.491481338843133355E-15, 1.224646799147353207E-16, -1.000000000000000000 ) ) ;
#110 = DIRECTION ( 'NONE',  ( -3.491481338843133355E-15, 1.224646799147353207E-16, -1.000000000000000000 ) ) ;
#111 = CIRCLE ( 'NONE', #35, 0.3349999999999997424 ) ;
#112 = LOCAL_TIME ( 8, 27, 21.00000000000000000, #242 ) ;
#113 = APPROVAL_STATUS ( 'not_yet_approved' ) ;
#114 = APPLICATION_CONTEXT ( 'configuration controlled 3d designs of mechanical parts and assemblies' ) ;
#115 = APPROVAL_ROLE ( '' ) ;
#116 = AXIS2_PLACEMENT_3D ( 'NONE', #194, #170, #264 ) ;
#117 = EDGE_LOOP ( 'NONE', ( #33 ) ) ;
#118 = LOCAL_TIME ( 8, 27, 21.00000000000000000, #171 ) ;
#119 = CC_DESIGN_PERSON_AND_ORGANIZATION_ASSIGNMENT ( #9, #65, ( #216 ) ) ;
#120 = CARTESIAN_POINT ( 'NONE',  ( 1.396592535537253342E-14, 2.512097635958602119E-33, 4.000000000000000000 ) ) ;
#121 = FACE_OUTER_BOUND ( 'NONE', #76, .T. ) ;
#122 = ORIENTED_EDGE ( 'NONE', *, *, #168, .T. ) ;
#123 = DATE_TIME_ROLE ( 'creation_date' ) ;
#124 = DIRECTION ( 'NONE',  ( 4.275831445896958607E-31, 1.000000000000000000, 1.224646799147353207E-16 ) ) ;
#125 = AXIS2_PLACEMENT_3D ( 'NONE', #154, #110, #270 ) ;
#126 = CARTESIAN_POINT ( 'NONE',  ( 4.811966790022560238E-14, 1.499999999999995559, 13.78202064690672479 ) ) ;
#127 = DATE_AND_TIME ( #21, #112 ) ;
#128 = DIRECTION ( 'NONE',  ( -3.491481338843133355E-15, 1.224646799147353207E-16, -1.000000000000000000 ) ) ;
#129 = DIRECTION ( 'NONE',  ( 4.275831445896958607E-31, 1.000000000000000000, 1.224646799147353207E-16 ) ) ;
#130 = PRODUCT_DEFINITION ( 'UNKNOWN', '', #54, #151 ) ;
#131 = DIRECTION ( 'NONE',  ( 0.0000000000000000000, 1.000000000000000000, 0.0000000000000000000 ) ) ;
#132 = AXIS2_PLACEMENT_3D ( 'NONE', #7, #28, #48 ) ;
#133 = PRODUCT_DEFINITION_SHAPE ( 'NONE', 'NONE',  #130 ) ;
#134 = PERSON_AND_ORGANIZATION_ROLE ( 'design_supplier' ) ;
#135 = FACE_BOUND ( 'NONE', #162, .T. ) ;
#136 = EDGE_LOOP ( 'NONE', ( #12 ) ) ;
#137 = CONICAL_SURFACE ( 'NONE', #17, 0.3349999999999991318, 0.5235987755982925984 ) ;
#138 = ORGANIZATION ( 'UNSPECIFIED', 'UNSPECIFIED', '' ) ;
#139 = EDGE_LOOP ( 'NONE', ( #63 ) ) ;
#140 = ADVANCED_FACE ( 'NONE', ( #103, #15 ), #50, .T. ) ;
#141 = ADVANCED_FACE ( 'NONE', ( #260, #84 ), #241, .T. ) ;
#142 = ORIENTED_EDGE ( 'NONE', *, *, #174, .F. ) ;
#143 = PLANE ( 'NONE',  #116 ) ;
#144 = DIRECTION ( 'NONE',  ( -3.491481338843133355E-15, 1.224646799147353207E-16, -1.000000000000000000 ) ) ;
#145 = AXIS2_PLACEMENT_3D ( 'NONE', #41, #144, #124 ) ;
#146 = DIRECTION ( 'NONE',  ( 3.491481338843133355E-15, -1.224646799147353207E-16, 1.000000000000000000 ) ) ;
#147 = CC_DESIGN_PERSON_AND_ORGANIZATION_ASSIGNMENT ( #160, #252, ( #130 ) ) ;
#148 = DIRECTION ( 'NONE',  ( 3.491481338843133355E-15, -1.224646799147353207E-16, 1.000000000000000000 ) ) ;
#149 = FACE_OUTER_BOUND ( 'NONE', #117, .T. ) ;
#150 = ADVANCED_FACE ( 'NONE', ( #78, #165 ), #222, .T. ) ;
#151 = DESIGN_CONTEXT ( 'detailed design', #257, 'design' ) ;
#152 = DIRECTION ( 'NONE',  ( -4.311783457583374647E-31, -1.000000000000000000, -1.213659148304672182E-16 ) ) ;
#153 = EDGE_CURVE ( 'NONE', #158, #158, #232, .T. ) ;
#154 = CARTESIAN_POINT ( 'NONE',  ( 0.0000000000000000000, 0.0000000000000000000, 0.0000000000000000000 ) ) ;
#155 =( GEOMETRIC_REPRESENTATION_CONTEXT ( 3 ) GLOBAL_UNCERTAINTY_ASSIGNED_CONTEXT ( ( #30 ) ) GLOBAL_UNIT_ASSIGNED_CONTEXT ( ( #224, #230, #226 ) ) REPRESENTATION_CONTEXT ( 'NONE', 'WORKASPACE' ) );
#156 = PRODUCT_RELATED_PRODUCT_CATEGORY ( 'detail', '', ( #45 ) ) ;
#157 = APPROVAL ( #184, 'UNSPECIFIED' ) ;
#158 = VERTEX_POINT ( 'NONE', #49 ) ;
#159 = EDGE_LOOP ( 'NONE', ( #255 ) ) ;
#160 = PERSON_AND_ORGANIZATION ( #177, #138 ) ;
#161 = DIRECTION ( 'NONE',  ( 0.0000000000000000000, 0.0000000000000000000, 1.000000000000000000 ) ) ;
#162 = EDGE_LOOP ( 'NONE', ( #254 ) ) ;
#163 = AXIS2_PLACEMENT_3D ( 'NONE', #166, #146, #259 ) ;
#164 = APPROVAL_PERSON_ORGANIZATION ( #79, #26, #46 ) ;
#165 = FACE_BOUND ( 'NONE', #192, .T. ) ;
#166 = CARTESIAN_POINT ( 'NONE',  ( 1.396592535537253342E-14, 2.512097635958602119E-33, 4.000000000000000000 ) ) ;
#167 = CARTESIAN_POINT ( 'NONE',  ( 4.811966790022560238E-14, -1.687810747101705480E-15, 13.78202064690672479 ) ) ;
#168 = EDGE_CURVE ( 'NONE', #198, #198, #53, .T. ) ;
#169 = CC_DESIGN_APPROVAL ( #220, ( #216 ) ) ;
#170 = DIRECTION ( 'NONE',  ( 3.491481338843133355E-15, -1.224646799147353207E-16, 1.000000000000000000 ) ) ;
#171 = COORDINATED_UNIVERSAL_TIME_OFFSET ( 1, 0, .AHEAD. ) ;
#172 = APPROVAL_DATE_TIME ( #201, #220 ) ;
#173 = CARTESIAN_POINT ( 'NONE',  ( 1.396592535537253342E-14, 0.3349999999999992428, 4.000000000000000000 ) ) ;
#174 = EDGE_CURVE ( 'NONE', #217, #217, #281, .T. ) ;
#175 = DIRECTION ( 'NONE',  ( 4.311783457583374647E-31, 1.000000000000000000, 1.213659148304672182E-16 ) ) ;
#176 = APPROVAL_PERSON_ORGANIZATION ( #275, #157, #115 ) ;
#177 = PERSON ( 'UNSPECIFIED', 'UNSPECIFIED', 'UNSPECIFIED', ('UNSPECIFIED'), ('UNSPECIFIED'), ('UNSPECIFIED') ) ;
#178 = CARTESIAN_POINT ( 'NONE',  ( 2.444036937190193349E-14, -8.572527594031473190E-16, 7.000000000000000000 ) ) ;
#179 = ADVANCED_FACE ( 'NONE', ( #246 ), #93, .F. ) ;
#180 = FACE_OUTER_BOUND ( 'NONE', #206, .T. ) ;
#181 = CARTESIAN_POINT ( 'NONE',  ( 2.565294811559829736E-14, -8.997842963946611302E-16, 7.347296355333847728 ) ) ;
#182 = LOCAL_TIME ( 8, 27, 21.00000000000000000, #204 ) ;
#183 = APPROVAL_DATE_TIME ( #95, #157 ) ;
#184 = APPROVAL_STATUS ( 'not_yet_approved' ) ;
#185 = CARTESIAN_POINT ( 'NONE',  ( 0.0000000000000000000, 0.0000000000000000000, 0.0000000000000000000 ) ) ;
#186 = AXIS2_PLACEMENT_3D ( 'NONE', #236, #81, #104 ) ;
#187 = DIRECTION ( 'NONE',  ( 0.0000000000000000000, 1.000000000000000000, 0.0000000000000000000 ) ) ;
#188 = AXIS2_PLACEMENT_3D ( 'NONE', #120, #148, #18 ) ;
#189 = CC_DESIGN_PERSON_AND_ORGANIZATION_ASSIGNMENT ( #196, #245, ( #54 ) ) ;
#190 = DIRECTION ( 'NONE',  ( 0.0000000000000000000, 1.000000000000000000, 0.0000000000000000000 ) ) ;
#191 = FACE_OUTER_BOUND ( 'NONE', #139, .T. ) ;
#192 = EDGE_LOOP ( 'NONE', ( #37 ) ) ;
#193 = AXIS2_PLACEMENT_3D ( 'NONE', #72, #272, #244 ) ;
#194 = CARTESIAN_POINT ( 'NONE',  ( -5.927691453728367736E-32, 2.079154278838812400E-33, -1.697758308996847566E-17 ) ) ;
#195 = ADVANCED_FACE ( 'NONE', ( #66, #108 ), #248, .F. ) ;
#196 = PERSON_AND_ORGANIZATION ( #177, #138 ) ;
#197 = DIRECTION ( 'NONE',  ( -3.491481338843133355E-15, 1.224646799147353207E-16, -1.000000000000000000 ) ) ;
#198 = VERTEX_POINT ( 'NONE', #126 ) ;
#199 = DATE_TIME_ROLE ( 'classification_date' ) ;
#200 = CARTESIAN_POINT ( 'NONE',  ( 1.326762908760390423E-13, 8.998558695971103225E-33, 38.00000000000000000 ) ) ;
#201 = DATE_AND_TIME ( #247, #71 ) ;
#202 = DIRECTION ( 'NONE',  ( 4.398347221690542813E-31, 1.000000000000000000, 1.224646799147353207E-16 ) ) ;
#203 = DIRECTION ( 'NONE',  ( 3.491481338843133355E-15, -1.224646799147353207E-16, 1.000000000000000000 ) ) ;
#204 = COORDINATED_UNIVERSAL_TIME_OFFSET ( 1, 0, .AHEAD. ) ;
#205 = EDGE_CURVE ( 'NONE', #5, #5, #2, .T. ) ;
#206 = EDGE_LOOP ( 'NONE', ( #214 ) ) ;
#207 = EDGE_LOOP ( 'NONE', ( #253 ) ) ;
#208 = PLANE ( 'NONE',  #188 ) ;
#209 = DIRECTION ( 'NONE',  ( 3.491481338843133355E-15, -1.224646799147353207E-16, 1.000000000000000000 ) ) ;
#210 = AXIS2_PLACEMENT_3D ( 'NONE', #200, #109, #129 ) ;
#211 = EDGE_CURVE ( 'NONE', #243, #243, #102, .T. ) ;
#212 = FACE_OUTER_BOUND ( 'NONE', #32, .T. ) ;
#213 = EDGE_LOOP ( 'NONE', ( #98 ) ) ;
#214 = ORIENTED_EDGE ( 'NONE', *, *, #174, .T. ) ;
#215 = CIRCLE ( 'NONE', #267, 0.3653844939755817034 ) ;
#216 = SECURITY_CLASSIFICATION ( '', '', #47 ) ;
#217 = VERTEX_POINT ( 'NONE', #22 ) ;
#218 = CARTESIAN_POINT ( 'NONE',  ( 2.565294811559829736E-14, 0.3653844939755807597, 7.347296355333847728 ) ) ;
#219 = CARTESIAN_POINT ( 'NONE',  ( 2.444036937190193349E-14, -8.673617379884035472E-16, 7.000000000000000000 ) ) ;
#220 = APPROVAL ( #113, 'UNSPECIFIED' ) ;
#221 = EDGE_CURVE ( 'NONE', #266, #266, #215, .T. ) ;
#222 = CONICAL_SURFACE ( 'NONE', #262, 1.200000000000003286, 0.7853981633974453924 ) ;
#223 = CARTESIAN_POINT ( 'NONE',  ( 3.491481338843132862E-16, -1.224646799147352961E-17, 0.09999999999999997780 ) ) ;
#224 =( LENGTH_UNIT ( ) NAMED_UNIT ( * ) SI_UNIT ( .MILLI., .METRE. ) );
#225 = PERSON_AND_ORGANIZATION_ROLE ( 'design_owner' ) ;
#226 =( NAMED_UNIT ( * ) SI_UNIT ( $, .STERADIAN. ) SOLID_ANGLE_UNIT ( ) );
#227 = AXIS2_PLACEMENT_3D ( 'NONE', #178, #24, #131 ) ;
#228 = ORIENTED_EDGE ( 'NONE', *, *, #211, .F. ) ;
#229 = EDGE_CURVE ( 'NONE', #249, #249, #70, .T. ) ;
#230 =( NAMED_UNIT ( * ) PLANE_ANGLE_UNIT ( ) SI_UNIT ( $, .RADIAN. ) );
#231 = EDGE_LOOP ( 'NONE', ( #56 ) ) ;
#232 = CIRCLE ( 'NONE', #31, 1.500000000000003331 ) ;
#233 = EDGE_LOOP ( 'NONE', ( #142 ) ) ;
#234 = COORDINATED_UNIVERSAL_TIME_OFFSET ( 1, 0, .AHEAD. ) ;
#235 = CARTESIAN_POINT ( 'NONE',  ( 1.316288464743861212E-13, -4.616918432785521081E-15, 37.69999999999999574 ) ) ;
#236 = CARTESIAN_POINT ( 'NONE',  ( 1.326762908760390423E-13, -4.653657836759941941E-15, 38.00000000000000000 ) ) ;
#237 = CLOSED_SHELL ( 'NONE', ( #106, #282, #141, #62 ) ) ;
#238 = LOCAL_TIME ( 8, 27, 21.00000000000000000, #234 ) ;
#239 = FACE_OUTER_BOUND ( 'NONE', #207, .T. ) ;
#240 = EDGE_LOOP ( 'NONE', ( #75 ) ) ;
#241 = CYLINDRICAL_SURFACE ( 'NONE', #13, 0.3349999999999994649 ) ;
#242 = COORDINATED_UNIVERSAL_TIME_OFFSET ( 1, 0, .AHEAD. ) ;
#243 = VERTEX_POINT ( 'NONE', #173 ) ;
#244 = DIRECTION ( 'NONE',  ( 0.0000000000000000000, 1.000000000000000000, 0.0000000000000000000 ) ) ;
#245 = PERSON_AND_ORGANIZATION_ROLE ( 'creator' ) ;
#246 = FACE_OUTER_BOUND ( 'NONE', #40, .T. ) ;
#247 = CALENDAR_DATE ( 2021, 1, 12 ) ;
#248 = TOROIDAL_SURFACE ( 'NONE', #20, 2.335000000000000409, 2.000000000000000000 ) ;
#249 = VERTEX_POINT ( 'NONE', #88 ) ;
#250 = ADVANCED_FACE ( 'NONE', ( #64, #149 ), #8, .T. ) ;
#251 = CARTESIAN_POINT ( 'NONE',  ( 3.491481338843132862E-16, -1.224646799147352961E-17, 0.09999999999999997780 ) ) ;
#252 = PERSON_AND_ORGANIZATION_ROLE ( 'creator' ) ;
#253 = ORIENTED_EDGE ( 'NONE', *, *, #205, .T. ) ;
#254 = ORIENTED_EDGE ( 'NONE', *, *, #229, .F. ) ;
#255 = ORIENTED_EDGE ( 'NONE', *, *, #221, .F. ) ;
#256 = CARTESIAN_POINT ( 'NONE',  ( 1.326762908760390423E-13, -4.653657836759941941E-15, 38.00000000000000000 ) ) ;
#257 = APPLICATION_CONTEXT ( 'configuration controlled 3d designs of mechanical parts and assemblies' ) ;
#258 = ADVANCED_BREP_SHAPE_REPRESENTATION ( '200753', ( #279, #87, #269 ), #155 ) ;
#259 = DIRECTION ( 'NONE',  ( -4.275831445896958607E-31, -1.000000000000000000, -1.224646799147353207E-16 ) ) ;
#260 = FACE_OUTER_BOUND ( 'NONE', #233, .T. ) ;
#261 = CC_DESIGN_PERSON_AND_ORGANIZATION_ASSIGNMENT ( #4, #134, ( #54 ) ) ;
#262 = AXIS2_PLACEMENT_3D ( 'NONE', #256, #58, #190 ) ;
#263 = CC_DESIGN_APPROVAL ( #26, ( #54 ) ) ;
#264 = DIRECTION ( 'NONE',  ( -4.275831445896958607E-31, -1.000000000000000000, -1.224646799147353207E-16 ) ) ;
#265 = APPROVAL_STATUS ( 'not_yet_approved' ) ;
#266 = VERTEX_POINT ( 'NONE', #218 ) ;
#267 = AXIS2_PLACEMENT_3D ( 'NONE', #181, #128, #92 ) ;
#268 = CALENDAR_DATE ( 2021, 1, 12 ) ;
#269 = AXIS2_PLACEMENT_3D ( 'NONE', #185, #161, #277 ) ;
#270 = DIRECTION ( 'NONE',  ( 4.275831445896959482E-31, 1.000000000000000000, 1.224646799147353207E-16 ) ) ;
#271 = APPROVAL_DATE_TIME ( #107, #26 ) ;
#272 = DIRECTION ( 'NONE',  ( -3.491481338843133355E-15, 1.224646799147353207E-16, -1.000000000000000000 ) ) ;
#273 = DIRECTION ( 'NONE',  ( -3.491481338843133355E-15, 1.224646799147353207E-16, -1.000000000000000000 ) ) ;
#274 = VERTEX_POINT ( 'NONE', #6 ) ;
#275 = PERSON_AND_ORGANIZATION ( #177, #138 ) ;
#276 = ORIENTED_EDGE ( 'NONE', *, *, #101, .F. ) ;
#277 = DIRECTION ( 'NONE',  ( 1.000000000000000000, 0.0000000000000000000, 0.0000000000000000000 ) ) ;
#278 = CC_DESIGN_APPROVAL ( #157, ( #130 ) ) ;
#279 = MANIFOLD_SOLID_BREP ( 'Corps-Déplacer/Copier1[1]', #44 ) ;
#280 = PLANE ( 'NONE',  #163 ) ;
#281 = CIRCLE ( 'NONE', #83, 0.3349999999999991318 ) ;
#282 = ADVANCED_FACE ( 'NONE', ( #135, #180 ), #137, .T. ) ;
#283 = DIRECTION ( 'NONE',  ( 0.0000000000000000000, 1.000000000000000000, 0.0000000000000000000 ) ) ;
ENDSEC;
END-ISO-10303-21;
