ISO-10303-21;
HEADER;
FILE_DESCRIPTION (( 'STEP AP203' ),
    '1' );
FILE_NAME ('200752.step',
    '2021-12-01T07:27:20',
    ( '' ),
    ( '' ),
    'SwSTEP 2.0',
    'SolidWorks 2019',
    '' );
FILE_SCHEMA (( 'CONFIG_CONTROL_DESIGN' ));
ENDSEC;

DATA;
#1 = VERTEX_POINT ( 'NONE', #134 ) ;
#2 = VERTEX_POINT ( 'NONE', #74 ) ;
#3 =( LENGTH_UNIT ( ) NAMED_UNIT ( * ) SI_UNIT ( .MILLI., .METRE. ) );
#4 = CONICAL_SURFACE ( 'NONE', #203, 1.499999999999997113, 0.1745329251994260644 ) ;
#5 = AXIS2_PLACEMENT_3D ( 'NONE', #185, #264, #69 ) ;
#6 = CARTESIAN_POINT ( 'NONE',  ( 2.565294811559829420E-14, 0.3603844939755802002, 7.347296355333846840 ) ) ;
#7 = APPROVAL_ROLE ( '' ) ;
#8 = MECHANICAL_CONTEXT ( 'NONE', #268, 'mechanical' ) ;
#9 = ADVANCED_FACE ( 'NONE', ( #15, #124 ), #245, .F. ) ;
#10 = CC_DESIGN_PERSON_AND_ORGANIZATION_ASSIGNMENT ( #76, #52, ( #127 ) ) ;
#11 = LOCAL_TIME ( 8, 27, 20.00000000000000000, #270 ) ;
#12 = DATE_TIME_ROLE ( 'classification_date' ) ;
#13 = EDGE_LOOP ( 'NONE', ( #234 ) ) ;
#14 = DIRECTION ( 'NONE',  ( -3.491481338843133355E-15, 1.224646799147353207E-16, -1.000000000000000000 ) ) ;
#15 = FACE_OUTER_BOUND ( 'NONE', #214, .T. ) ;
#16 = AXIS2_PLACEMENT_3D ( 'NONE', #24, #199, #68 ) ;
#17 = DIRECTION ( 'NONE',  ( 0.0000000000000000000, 1.000000000000000000, 0.0000000000000000000 ) ) ;
#18 = EDGE_LOOP ( 'NONE', ( #273 ) ) ;
#19 = DIRECTION ( 'NONE',  ( -3.491481338843133355E-15, 1.224646799147353207E-16, -1.000000000000000000 ) ) ;
#20 = CARTESIAN_POINT ( 'NONE',  ( -8.186715450559895587E-32, 2.871513234374128102E-33, -2.344768496821603767E-17 ) ) ;
#21 = DIRECTION ( 'NONE',  ( 3.491481338843133355E-15, -1.224646799147353207E-16, 1.000000000000000000 ) ) ;
#22 = DIRECTION ( 'NONE',  ( 0.0000000000000000000, 1.000000000000000000, 0.0000000000000000000 ) ) ;
#23 = AXIS2_PLACEMENT_3D ( 'NONE', #180, #131, #48 ) ;
#24 = CARTESIAN_POINT ( 'NONE',  ( 1.396592535537253342E-14, 2.474603641392054721E-33, 4.000000000000000000 ) ) ;
#25 = EDGE_CURVE ( 'NONE', #114, #114, #238, .T. ) ;
#26 = CC_DESIGN_DATE_AND_TIME_ASSIGNMENT ( #117, #247, ( #127 ) ) ;
#27 =( NAMED_UNIT ( * ) PLANE_ANGLE_UNIT ( ) SI_UNIT ( $, .RADIAN. ) );
#28 = DIRECTION ( 'NONE',  ( 0.0000000000000000000, 0.0000000000000000000, 1.000000000000000000 ) ) ;
#29 = ADVANCED_FACE ( 'NONE', ( #216 ), #174, .F. ) ;
#30 = SHAPE_DEFINITION_REPRESENTATION ( #35, #67 ) ;
#31 = SECURITY_CLASSIFICATION_LEVEL ( 'unclassified' ) ;
#32 = LOCAL_TIME ( 8, 27, 20.00000000000000000, #208 ) ;
#33 = DIRECTION ( 'NONE',  ( 0.0000000000000000000, 1.000000000000000000, 0.0000000000000000000 ) ) ;
#34 = EDGE_LOOP ( 'NONE', ( #44 ) ) ;
#35 = PRODUCT_DEFINITION_SHAPE ( 'NONE', 'NONE',  #127 ) ;
#36 = AXIS2_PLACEMENT_3D ( 'NONE', #154, #184, #181 ) ;
#37 = APPROVAL_PERSON_ORGANIZATION ( #225, #271, #140 ) ;
#38 = PERSON ( 'UNSPECIFIED', 'UNSPECIFIED', 'UNSPECIFIED', ('UNSPECIFIED'), ('UNSPECIFIED'), ('UNSPECIFIED') ) ;
#39 = EDGE_LOOP ( 'NONE', ( #78 ) ) ;
#40 = CARTESIAN_POINT ( 'NONE',  ( 4.821867377342818040E-14, -1.691283405665434269E-15, 13.81037705600481402 ) ) ;
#41 = CARTESIAN_POINT ( 'NONE',  ( 3.491481338843132369E-16, -1.224646799147352807E-17, 0.09999999999999996392 ) ) ;
#42 = SECURITY_CLASSIFICATION ( '', '', #31 ) ;
#43 = DIRECTION ( 'NONE',  ( -3.491481338843133355E-15, 1.224646799147353207E-16, -1.000000000000000000 ) ) ;
#44 = ORIENTED_EDGE ( 'NONE', *, *, #213, .F. ) ;
#45 = FACE_OUTER_BOUND ( 'NONE', #13, .T. ) ;
#46 = FACE_OUTER_BOUND ( 'NONE', #54, .T. ) ;
#47 = AXIS2_PLACEMENT_3D ( 'NONE', #255, #14, #275 ) ;
#48 = DIRECTION ( 'NONE',  ( 0.0000000000000000000, 1.000000000000000000, 0.0000000000000000000 ) ) ;
#49 = VERTEX_POINT ( 'NONE', #6 ) ;
#50 = ADVANCED_FACE ( 'NONE', ( #175, #197 ), #135, .T. ) ;
#51 = PERSON_AND_ORGANIZATION_ROLE ( 'design_owner' ) ;
#52 = PERSON_AND_ORGANIZATION_ROLE ( 'creator' ) ;
#53 = AXIS2_PLACEMENT_3D ( 'NONE', #58, #84, #33 ) ;
#54 = EDGE_LOOP ( 'NONE', ( #103 ) ) ;
#55 = CC_DESIGN_PERSON_AND_ORGANIZATION_ASSIGNMENT ( #190, #118, ( #256 ) ) ;
#56 = EDGE_LOOP ( 'NONE', ( #81 ) ) ;
#57 = CARTESIAN_POINT ( 'NONE',  ( 1.326762908760390423E-13, 8.998558695971103225E-33, 38.00000000000000000 ) ) ;
#58 = CARTESIAN_POINT ( 'NONE',  ( 1.316288464743861212E-13, -4.616918432785521081E-15, 37.69999999999999574 ) ) ;
#59 = FACE_OUTER_BOUND ( 'NONE', #194, .T. ) ;
#60 = DIRECTION ( 'NONE',  ( 0.0000000000000000000, 1.000000000000000000, 0.0000000000000000000 ) ) ;
#61 = PRODUCT ( '200752', '200752', '', ( #8 ) ) ;
#62 = EDGE_LOOP ( 'NONE', ( #232 ) ) ;
#63 = DIRECTION ( 'NONE',  ( -3.491481338843133355E-15, 1.224646799147353207E-16, -1.000000000000000000 ) ) ;
#64 = CIRCLE ( 'NONE', #36, 0.3300000000000000155 ) ;
#65 = AXIS2_PLACEMENT_3D ( 'NONE', #133, #221, #22 ) ;
#66 = PLANE ( 'NONE',  #218 ) ;
#67 = ADVANCED_BREP_SHAPE_REPRESENTATION ( '200752', ( #73, #170, #159 ), #212 ) ;
#68 = DIRECTION ( 'NONE',  ( -4.275831445896958607E-31, -1.000000000000000000, -1.224646799147353207E-16 ) ) ;
#69 = DIRECTION ( 'NONE',  ( 4.377113509971002438E-31, 1.000000000000000000, 1.232047923278985651E-16 ) ) ;
#70 = AXIS2_PLACEMENT_3D ( 'NONE', #93, #217, #112 ) ;
#71 = VERTEX_POINT ( 'NONE', #187 ) ;
#72 = PERSON_AND_ORGANIZATION_ROLE ( 'classification_officer' ) ;
#73 = MANIFOLD_SOLID_BREP ( 'Corps-Déplacer/Copier1[1]', #83 ) ;
#74 = CARTESIAN_POINT ( 'NONE',  ( 2.444036937190193349E-14, 0.3299999999999991274, 7.000000000000000000 ) ) ;
#75 = DATE_AND_TIME ( #226, #204 ) ;
#76 = PERSON_AND_ORGANIZATION ( #38, #229 ) ;
#77 = APPROVAL ( #163, 'UNSPECIFIED' ) ;
#78 = ORIENTED_EDGE ( 'NONE', *, *, #104, .T. ) ;
#79 = CONICAL_SURFACE ( 'NONE', #242, 0.3299999999999991274, 0.5235987755982925984 ) ;
#80 = ORIENTED_EDGE ( 'NONE', *, *, #119, .F. ) ;
#81 = ORIENTED_EDGE ( 'NONE', *, *, #25, .F. ) ;
#82 = EDGE_LOOP ( 'NONE', ( #274 ) ) ;
#83 = CLOSED_SHELL ( 'NONE', ( #258, #126, #9, #110, #164, #50, #29 ) ) ;
#84 = DIRECTION ( 'NONE',  ( -3.491481338843133355E-15, 1.224646799147353207E-16, -1.000000000000000000 ) ) ;
#85 = UNCERTAINTY_MEASURE_WITH_UNIT (LENGTH_MEASURE( 1.000000000000000082E-05 ), #3, 'distance_accuracy_value', 'NONE');
#86 = FACE_OUTER_BOUND ( 'NONE', #62, .T. ) ;
#87 = DIRECTION ( 'NONE',  ( 3.491481338843133355E-15, -1.224646799147353207E-16, 1.000000000000000000 ) ) ;
#88 = CARTESIAN_POINT ( 'NONE',  ( 0.0000000000000000000, 0.0000000000000000000, 0.0000000000000000000 ) ) ;
#89 = CIRCLE ( 'NONE', #65, 0.3603844939755811438 ) ;
#90 = VERTEX_POINT ( 'NONE', #157 ) ;
#91 = EDGE_CURVE ( 'NONE', #1, #1, #177, .T. ) ;
#92 = CC_DESIGN_DATE_AND_TIME_ASSIGNMENT ( #139, #12, ( #42 ) ) ;
#93 = CARTESIAN_POINT ( 'NONE',  ( 1.396592535537253342E-14, -4.898587196589412829E-16, 4.000000000000000000 ) ) ;
#94 = CARTESIAN_POINT ( 'NONE',  ( 0.0000000000000000000, 0.0000000000000000000, 0.0000000000000000000 ) ) ;
#95 = AXIS2_PLACEMENT_3D ( 'NONE', #88, #19, #130 ) ;
#96 = VERTEX_POINT ( 'NONE', #266 ) ;
#97 = CALENDAR_DATE ( 2021, 1, 12 ) ;
#98 = APPROVAL_DATE_TIME ( #228, #155 ) ;
#99 = COORDINATED_UNIVERSAL_TIME_OFFSET ( 1, 0, .AHEAD. ) ;
#100 = CC_DESIGN_APPROVAL ( #271, ( #42 ) ) ;
#101 = CALENDAR_DATE ( 2021, 1, 12 ) ;
#102 = EDGE_LOOP ( 'NONE', ( #172 ) ) ;
#103 = ORIENTED_EDGE ( 'NONE', *, *, #213, .T. ) ;
#104 = EDGE_CURVE ( 'NONE', #90, #90, #277, .T. ) ;
#105 = EDGE_LOOP ( 'NONE', ( #123 ) ) ;
#106 = DIRECTION ( 'NONE',  ( 4.275831445896958607E-31, 1.000000000000000000, 1.224646799147353207E-16 ) ) ;
#107 = DIRECTION ( 'NONE',  ( -3.491481338843133355E-15, 1.224646799147353207E-16, -1.000000000000000000 ) ) ;
#108 = LOCAL_TIME ( 8, 27, 20.00000000000000000, #227 ) ;
#109 = DIRECTION ( 'NONE',  ( -4.377113509971002438E-31, -1.000000000000000000, -1.232047923278985651E-16 ) ) ;
#110 = ADVANCED_FACE ( 'NONE', ( #179, #59 ), #4, .T. ) ;
#111 = CARTESIAN_POINT ( 'NONE',  ( 0.0000000000000000000, 0.0000000000000000000, 0.0000000000000000000 ) ) ;
#112 = DIRECTION ( 'NONE',  ( 0.0000000000000000000, 1.000000000000000000, 0.0000000000000000000 ) ) ;
#113 = EDGE_CURVE ( 'NONE', #202, #202, #153, .T. ) ;
#114 = VERTEX_POINT ( 'NONE', #201 ) ;
#115 = CARTESIAN_POINT ( 'NONE',  ( 1.326762908760390423E-13, 1.199999999999998845, 38.00000000000000000 ) ) ;
#116 = DIRECTION ( 'NONE',  ( 1.000000000000000000, 0.0000000000000000000, 0.0000000000000000000 ) ) ;
#117 = DATE_AND_TIME ( #248, #233 ) ;
#118 = PERSON_AND_ORGANIZATION_ROLE ( 'design_supplier' ) ;
#119 = EDGE_CURVE ( 'NONE', #2, #2, #64, .T. ) ;
#120 = APPROVAL_STATUS ( 'not_yet_approved' ) ;
#121 = ORIENTED_EDGE ( 'NONE', *, *, #280, .F. ) ;
#122 = AXIS2_PLACEMENT_3D ( 'NONE', #257, #107, #210 ) ;
#123 = ORIENTED_EDGE ( 'NONE', *, *, #119, .T. ) ;
#124 = FACE_OUTER_BOUND ( 'NONE', #18, .T. ) ;
#125 = CARTESIAN_POINT ( 'NONE',  ( 1.326762908760390423E-13, -4.653657836759941941E-15, 38.00000000000000000 ) ) ;
#126 = ADVANCED_FACE ( 'NONE', ( #259, #219 ), #261, .T. ) ;
#127 = PRODUCT_DEFINITION ( 'UNKNOWN', '', #256, #166 ) ;
#128 = AXIS2_PLACEMENT_3D ( 'NONE', #125, #220, #60 ) ;
#129 = AXIS2_PLACEMENT_3D ( 'NONE', #263, #43, #158 ) ;
#130 = DIRECTION ( 'NONE',  ( 4.275831445896958607E-31, 1.000000000000000000, 1.224646799147353207E-16 ) ) ;
#131 = DIRECTION ( 'NONE',  ( -3.491481338843133355E-15, 1.224646799147353207E-16, -1.000000000000000000 ) ) ;
#132 = ADVANCED_FACE ( 'NONE', ( #241 ), #260, .F. ) ;
#133 = CARTESIAN_POINT ( 'NONE',  ( 2.565294811559829420E-14, -8.997842963946611302E-16, 7.347296355333846840 ) ) ;
#134 = CARTESIAN_POINT ( 'NONE',  ( 4.821867377342818040E-14, 1.499999999999995559, 13.81037705600481402 ) ) ;
#135 = CONICAL_SURFACE ( 'NONE', #144, 1.200000000000003286, 0.7853981633974453924 ) ;
#136 = APPROVAL_PERSON_ORGANIZATION ( #265, #155, #7 ) ;
#137 =( NAMED_UNIT ( * ) SI_UNIT ( $, .STERADIAN. ) SOLID_ANGLE_UNIT ( ) );
#138 = PERSON_AND_ORGANIZATION_ROLE ( 'creator' ) ;
#139 = DATE_AND_TIME ( #191, #32 ) ;
#140 = APPROVAL_ROLE ( '' ) ;
#141 = EDGE_LOOP ( 'NONE', ( #272 ) ) ;
#142 = CC_DESIGN_PERSON_AND_ORGANIZATION_ASSIGNMENT ( #161, #51, ( #61 ) ) ;
#143 = PERSON_AND_ORGANIZATION ( #38, #229 ) ;
#144 = AXIS2_PLACEMENT_3D ( 'NONE', #148, #276, #17 ) ;
#145 = CIRCLE ( 'NONE', #70, 0.3299999999999996270 ) ;
#146 = EDGE_LOOP ( 'NONE', ( #193 ) ) ;
#147 = ORIENTED_EDGE ( 'NONE', *, *, #91, .T. ) ;
#148 = CARTESIAN_POINT ( 'NONE',  ( 1.326762908760390423E-13, -4.653657836759941941E-15, 38.00000000000000000 ) ) ;
#149 = EDGE_LOOP ( 'NONE', ( #231 ) ) ;
#150 = DIRECTION ( 'NONE',  ( 3.491481338843133355E-15, -1.224646799147353207E-16, 1.000000000000000000 ) ) ;
#151 = CC_DESIGN_PERSON_AND_ORGANIZATION_ASSIGNMENT ( #143, #138, ( #256 ) ) ;
#152 = DIRECTION ( 'NONE',  ( -4.275831445896958607E-31, -1.000000000000000000, -1.224646799147353207E-16 ) ) ;
#153 = CIRCLE ( 'NONE', #128, 1.200000000000003286 ) ;
#154 = CARTESIAN_POINT ( 'NONE',  ( 2.444036937190193349E-14, -8.572527594031473190E-16, 7.000000000000000000 ) ) ;
#155 = APPROVAL ( #167, 'UNSPECIFIED' ) ;
#156 = FACE_OUTER_BOUND ( 'NONE', #141, .T. ) ;
#157 = CARTESIAN_POINT ( 'NONE',  ( 1.316288464743861212E-13, 1.499999999999998668, 37.69999999999999574 ) ) ;
#158 = DIRECTION ( 'NONE',  ( 4.275831445896959482E-31, 1.000000000000000000, 1.224646799147353207E-16 ) ) ;
#159 = AXIS2_PLACEMENT_3D ( 'NONE', #94, #28, #116 ) ;
#160 = APPLICATION_CONTEXT ( 'configuration controlled 3d designs of mechanical parts and assemblies' ) ;
#161 = PERSON_AND_ORGANIZATION ( #38, #229 ) ;
#162 = PERSON_AND_ORGANIZATION ( #38, #229 ) ;
#163 = APPROVAL_STATUS ( 'not_yet_approved' ) ;
#164 = ADVANCED_FACE ( 'NONE', ( #86, #236 ), #239, .T. ) ;
#165 = CC_DESIGN_APPROVAL ( #77, ( #127 ) ) ;
#166 = DESIGN_CONTEXT ( 'detailed design', #160, 'design' ) ;
#167 = APPROVAL_STATUS ( 'not_yet_approved' ) ;
#168 = APPROVAL_DATE_TIME ( #189, #77 ) ;
#169 = ORIENTED_EDGE ( 'NONE', *, *, #113, .T. ) ;
#170 = MANIFOLD_SOLID_BREP ( 'Corps-Déplacer/Copier1[2]', #188 ) ;
#171 = CC_DESIGN_APPROVAL ( #155, ( #256 ) ) ;
#172 = ORIENTED_EDGE ( 'NONE', *, *, #25, .T. ) ;
#173 = EDGE_LOOP ( 'NONE', ( #121 ) ) ;
#174 = PLANE ( 'NONE',  #282 ) ;
#175 = FACE_OUTER_BOUND ( 'NONE', #146, .T. ) ;
#176 = EDGE_CURVE ( 'NONE', #224, #224, #182, .T. ) ;
#177 = CIRCLE ( 'NONE', #47, 1.499999999999997113 ) ;
#178 = CC_DESIGN_SECURITY_CLASSIFICATION ( #42, ( #256 ) ) ;
#179 = FACE_BOUND ( 'NONE', #173, .T. ) ;
#180 = CARTESIAN_POINT ( 'NONE',  ( 1.396592535537253342E-14, -4.898587196589412829E-16, 4.000000000000000000 ) ) ;
#181 = DIRECTION ( 'NONE',  ( 0.0000000000000000000, 1.000000000000000000, 0.0000000000000000000 ) ) ;
#182 = CIRCLE ( 'NONE', #23, 0.3299999999999996270 ) ;
#183 = PLANE ( 'NONE',  #16 ) ;
#184 = DIRECTION ( 'NONE',  ( -3.491481338843133355E-15, 1.224646799147353207E-16, -1.000000000000000000 ) ) ;
#185 = CARTESIAN_POINT ( 'NONE',  ( 3.491481338843132369E-16, -1.224646799147352807E-17, 0.09999999999999996392 ) ) ;
#186 = EDGE_CURVE ( 'NONE', #71, #71, #145, .T. ) ;
#187 = CARTESIAN_POINT ( 'NONE',  ( 1.396592535537253342E-14, 0.3299999999999991274, 4.000000000000000000 ) ) ;
#188 = CLOSED_SHELL ( 'NONE', ( #132, #209, #237, #262 ) ) ;
#189 = DATE_AND_TIME ( #101, #108 ) ;
#190 = PERSON_AND_ORGANIZATION ( #38, #229 ) ;
#191 = CALENDAR_DATE ( 2021, 1, 12 ) ;
#192 = APPROVAL_DATE_TIME ( #75, #271 ) ;
#193 = ORIENTED_EDGE ( 'NONE', *, *, #104, .F. ) ;
#194 = EDGE_LOOP ( 'NONE', ( #147 ) ) ;
#195 = CARTESIAN_POINT ( 'NONE',  ( -1.637343090111979117E-31, 5.743026468748256203E-33, -4.689536993643207534E-17 ) ) ;
#196 = DIRECTION ( 'NONE',  ( 4.275831445896958607E-31, 1.000000000000000000, 1.224646799147353207E-16 ) ) ;
#197 = FACE_BOUND ( 'NONE', #235, .T. ) ;
#198 = FACE_OUTER_BOUND ( 'NONE', #82, .T. ) ;
#199 = DIRECTION ( 'NONE',  ( 3.491481338843133355E-15, -1.224646799147353207E-16, 1.000000000000000000 ) ) ;
#200 = DIRECTION ( 'NONE',  ( 3.491481338843133355E-15, -1.224646799147353207E-16, 1.000000000000000000 ) ) ;
#201 = CARTESIAN_POINT ( 'NONE',  ( -4.731839565957903391E-32, 0.2722649730810373647, -1.355252715606880543E-17 ) ) ;
#202 = VERTEX_POINT ( 'NONE', #115 ) ;
#203 = AXIS2_PLACEMENT_3D ( 'NONE', #40, #150, #251 ) ;
#204 = LOCAL_TIME ( 8, 27, 20.00000000000000000, #267 ) ;
#205 = APPLICATION_PROTOCOL_DEFINITION ( 'international standard', 'config_control_design', 1994, #160 ) ;
#206 = APPLICATION_PROTOCOL_DEFINITION ( 'international standard', 'config_control_design', 1994, #268 ) ;
#207 = APPROVAL_ROLE ( '' ) ;
#208 = COORDINATED_UNIVERSAL_TIME_OFFSET ( 1, 0, .AHEAD. ) ;
#209 = ADVANCED_FACE ( 'NONE', ( #278, #46 ), #79, .T. ) ;
#210 = DIRECTION ( 'NONE',  ( 4.398488694872752644E-31, 1.000000000000000000, 1.224646799147353207E-16 ) ) ;
#211 = EDGE_LOOP ( 'NONE', ( #253 ) ) ;
#212 =( GEOMETRIC_REPRESENTATION_CONTEXT ( 3 ) GLOBAL_UNCERTAINTY_ASSIGNED_CONTEXT ( ( #85 ) ) GLOBAL_UNIT_ASSIGNED_CONTEXT ( ( #3, #27, #137 ) ) REPRESENTATION_CONTEXT ( 'NONE', 'WORKASPACE' ) );
#213 = EDGE_CURVE ( 'NONE', #96, #96, #246, .T. ) ;
#214 = EDGE_LOOP ( 'NONE', ( #80 ) ) ;
#215 = CC_DESIGN_PERSON_AND_ORGANIZATION_ASSIGNMENT ( #249, #72, ( #42 ) ) ;
#216 = FACE_OUTER_BOUND ( 'NONE', #211, .T. ) ;
#217 = DIRECTION ( 'NONE',  ( -3.491481338843133355E-15, 1.224646799147353207E-16, -1.000000000000000000 ) ) ;
#218 = AXIS2_PLACEMENT_3D ( 'NONE', #279, #87, #240 ) ;
#219 = FACE_OUTER_BOUND ( 'NONE', #105, .T. ) ;
#220 = DIRECTION ( 'NONE',  ( -3.491481338843133355E-15, 1.224646799147353207E-16, -1.000000000000000000 ) ) ;
#221 = DIRECTION ( 'NONE',  ( -3.491481338843133355E-15, 1.224646799147353207E-16, -1.000000000000000000 ) ) ;
#222 = DIRECTION ( 'NONE',  ( 4.275831445896957731E-31, 1.000000000000000000, 1.224646799147353207E-16 ) ) ;
#223 = PRODUCT_RELATED_PRODUCT_CATEGORY ( 'detail', '', ( #61 ) ) ;
#224 = VERTEX_POINT ( 'NONE', #244 ) ;
#225 = PERSON_AND_ORGANIZATION ( #38, #229 ) ;
#226 = CALENDAR_DATE ( 2021, 1, 12 ) ;
#227 = COORDINATED_UNIVERSAL_TIME_OFFSET ( 1, 0, .AHEAD. ) ;
#228 = DATE_AND_TIME ( #97, #11 ) ;
#229 = ORGANIZATION ( 'UNSPECIFIED', 'UNSPECIFIED', '' ) ;
#230 = DIRECTION ( 'NONE',  ( -3.491481338843133355E-15, 1.224646799147353207E-16, -1.000000000000000000 ) ) ;
#231 = ORIENTED_EDGE ( 'NONE', *, *, #176, .F. ) ;
#232 = ORIENTED_EDGE ( 'NONE', *, *, #91, .F. ) ;
#233 = LOCAL_TIME ( 8, 27, 20.00000000000000000, #99 ) ;
#234 = ORIENTED_EDGE ( 'NONE', *, *, #186, .T. ) ;
#235 = EDGE_LOOP ( 'NONE', ( #169 ) ) ;
#236 = FACE_OUTER_BOUND ( 'NONE', #39, .T. ) ;
#237 = ADVANCED_FACE ( 'NONE', ( #243, #45 ), #281, .T. ) ;
#238 = CIRCLE ( 'NONE', #250, 0.2722649730810373647 ) ;
#239 = CYLINDRICAL_SURFACE ( 'NONE', #129, 1.500000000000000222 ) ;
#240 = DIRECTION ( 'NONE',  ( -4.275831445896958607E-31, -1.000000000000000000, -1.224646799147353207E-16 ) ) ;
#241 = FACE_OUTER_BOUND ( 'NONE', #102, .T. ) ;
#242 = AXIS2_PLACEMENT_3D ( 'NONE', #41, #200, #109 ) ;
#243 = FACE_OUTER_BOUND ( 'NONE', #34, .T. ) ;
#244 = CARTESIAN_POINT ( 'NONE',  ( 1.396592535537253342E-14, 0.3299999999999991274, 4.000000000000000000 ) ) ;
#245 = TOROIDAL_SURFACE ( 'NONE', #122, 2.330000000000000071, 2.000000000000000000 ) ;
#246 = CIRCLE ( 'NONE', #5, 0.3299999999999991274 ) ;
#247 = DATE_TIME_ROLE ( 'creation_date' ) ;
#248 = CALENDAR_DATE ( 2021, 1, 12 ) ;
#249 = PERSON_AND_ORGANIZATION ( #38, #229 ) ;
#250 = AXIS2_PLACEMENT_3D ( 'NONE', #195, #254, #106 ) ;
#251 = DIRECTION ( 'NONE',  ( 0.0000000000000000000, -1.000000000000000000, 0.0000000000000000000 ) ) ;
#252 = APPROVAL_PERSON_ORGANIZATION ( #162, #77, #207 ) ;
#253 = ORIENTED_EDGE ( 'NONE', *, *, #113, .F. ) ;
#254 = DIRECTION ( 'NONE',  ( -3.491481338843133355E-15, 1.224646799147353207E-16, -1.000000000000000000 ) ) ;
#255 = CARTESIAN_POINT ( 'NONE',  ( 4.821867377342818040E-14, -1.691283405665434269E-15, 13.81037705600481402 ) ) ;
#256 = PRODUCT_DEFINITION_FORMATION_WITH_SPECIFIED_SOURCE ( 'ANY', '', #61, .NOT_KNOWN. ) ;
#257 = CARTESIAN_POINT ( 'NONE',  ( 2.444036937190193349E-14, -8.673617379884035472E-16, 7.000000000000000000 ) ) ;
#258 = ADVANCED_FACE ( 'NONE', ( #198 ), #183, .F. ) ;
#259 = FACE_OUTER_BOUND ( 'NONE', #149, .T. ) ;
#260 = PLANE ( 'NONE',  #269 ) ;
#261 = CYLINDRICAL_SURFACE ( 'NONE', #283, 0.3299999999999997935 ) ;
#262 = ADVANCED_FACE ( 'NONE', ( #156 ), #66, .T. ) ;
#263 = CARTESIAN_POINT ( 'NONE',  ( 0.0000000000000000000, 0.0000000000000000000, 0.0000000000000000000 ) ) ;
#264 = DIRECTION ( 'NONE',  ( -3.491481338843133355E-15, 1.224646799147353207E-16, -1.000000000000000000 ) ) ;
#265 = PERSON_AND_ORGANIZATION ( #38, #229 ) ;
#266 = CARTESIAN_POINT ( 'NONE',  ( 3.491481338843133848E-16, 0.3299999999999991274, 0.1000000000000000056 ) ) ;
#267 = COORDINATED_UNIVERSAL_TIME_OFFSET ( 1, 0, .AHEAD. ) ;
#268 = APPLICATION_CONTEXT ( 'configuration controlled 3d designs of mechanical parts and assemblies' ) ;
#269 = AXIS2_PLACEMENT_3D ( 'NONE', #20, #21, #152 ) ;
#270 = COORDINATED_UNIVERSAL_TIME_OFFSET ( 1, 0, .AHEAD. ) ;
#271 = APPROVAL ( #120, 'UNSPECIFIED' ) ;
#272 = ORIENTED_EDGE ( 'NONE', *, *, #186, .F. ) ;
#273 = ORIENTED_EDGE ( 'NONE', *, *, #280, .T. ) ;
#274 = ORIENTED_EDGE ( 'NONE', *, *, #176, .T. ) ;
#275 = DIRECTION ( 'NONE',  ( 0.0000000000000000000, 1.000000000000000000, 0.0000000000000000000 ) ) ;
#276 = DIRECTION ( 'NONE',  ( -3.491481338843133355E-15, 1.224646799147353207E-16, -1.000000000000000000 ) ) ;
#277 = CIRCLE ( 'NONE', #53, 1.500000000000003331 ) ;
#278 = FACE_BOUND ( 'NONE', #56, .T. ) ;
#279 = CARTESIAN_POINT ( 'NONE',  ( 1.396592535537253342E-14, 2.474603641392054721E-33, 4.000000000000000000 ) ) ;
#280 = EDGE_CURVE ( 'NONE', #49, #49, #89, .T. ) ;
#281 = CYLINDRICAL_SURFACE ( 'NONE', #95, 0.3299999999999993494 ) ;
#282 = AXIS2_PLACEMENT_3D ( 'NONE', #57, #230, #196 ) ;
#283 = AXIS2_PLACEMENT_3D ( 'NONE', #111, #63, #222 ) ;
ENDSEC;
END-ISO-10303-21;
