ISO-10303-21;
HEADER;
FILE_DESCRIPTION (( 'STEP AP203' ),
    '1' );
FILE_NAME ('200751.step',
    '2021-12-01T07:27:19',
    ( '' ),
    ( '' ),
    'SwSTEP 2.0',
    'SolidWorks 2019',
    '' );
FILE_SCHEMA (( 'CONFIG_CONTROL_DESIGN' ));
ENDSEC;

DATA;
#1 = MANIFOLD_SOLID_BREP ( 'Corps-Déplacer/Copier1[2]', #55 ) ;
#2 = EDGE_LOOP ( 'NONE', ( #197 ) ) ;
#3 = MANIFOLD_SOLID_BREP ( 'Corps-Déplacer/Copier1[1]', #277 ) ;
#4 = DIRECTION ( 'NONE',  ( -3.491481338843133355E-15, 1.224646799147353207E-16, -1.000000000000000000 ) ) ;
#5 = CIRCLE ( 'NONE', #62, 1.200000000000003286 ) ;
#6 = FACE_OUTER_BOUND ( 'NONE', #165, .T. ) ;
#7 = PERSON_AND_ORGANIZATION_ROLE ( 'classification_officer' ) ;
#8 = CARTESIAN_POINT ( 'NONE',  ( -6.034587239875792402E-32, 2.116648273405359456E-33, -1.728374478975531945E-17 ) ) ;
#9 = CARTESIAN_POINT ( 'NONE',  ( 1.326762908760390423E-13, 1.199999999999998845, 38.00000000000000000 ) ) ;
#10 = DATE_TIME_ROLE ( 'classification_date' ) ;
#11 = DIRECTION ( 'NONE',  ( -4.275831445896958607E-31, -1.000000000000000000, -1.224646799147353207E-16 ) ) ;
#12 = EDGE_CURVE ( 'NONE', #95, #95, #137, .T. ) ;
#13 = FACE_OUTER_BOUND ( 'NONE', #164, .T. ) ;
#14 = AXIS2_PLACEMENT_3D ( 'NONE', #87, #213, #105 ) ;
#15 = PERSON_AND_ORGANIZATION ( #161, #219 ) ;
#16 = ADVANCED_FACE ( 'NONE', ( #199, #260 ), #236, .T. ) ;
#17 = CIRCLE ( 'NONE', #193, 0.2822649730810374846 ) ;
#18 = EDGE_LOOP ( 'NONE', ( #102 ) ) ;
#19 = EDGE_LOOP ( 'NONE', ( #255 ) ) ;
#20 = DIRECTION ( 'NONE',  ( 0.0000000000000000000, 1.000000000000000000, 0.0000000000000000000 ) ) ;
#21 = DIRECTION ( 'NONE',  ( 4.275831445896958607E-31, 1.000000000000000000, 1.224646799147353207E-16 ) ) ;
#22 = DIRECTION ( 'NONE',  ( -3.491481338843133355E-15, 1.224646799147353207E-16, -1.000000000000000000 ) ) ;
#23 = DIRECTION ( 'NONE',  ( 0.0000000000000000000, 1.000000000000000000, 0.0000000000000000000 ) ) ;
#24 = APPROVAL ( #135, 'UNSPECIFIED' ) ;
#25 = DIRECTION ( 'NONE',  ( 0.0000000000000000000, 1.000000000000000000, 0.0000000000000000000 ) ) ;
#26 = DIRECTION ( 'NONE',  ( 4.398206074483408037E-31, 1.000000000000000000, 1.224646799147353207E-16 ) ) ;
#27 = APPROVAL_STATUS ( 'not_yet_approved' ) ;
#28 = VERTEX_POINT ( 'NONE', #251 ) ;
#29 = CALENDAR_DATE ( 2021, 1, 12 ) ;
#30 = CARTESIAN_POINT ( 'NONE',  ( 2.444036937190193349E-14, -8.673617379884035472E-16, 7.000000000000000000 ) ) ;
#31 = SECURITY_CLASSIFICATION_LEVEL ( 'unclassified' ) ;
#32 = DIRECTION ( 'NONE',  ( 0.0000000000000000000, -1.000000000000000000, 0.0000000000000000000 ) ) ;
#33 = AXIS2_PLACEMENT_3D ( 'NONE', #200, #175, #227 ) ;
#34 = CC_DESIGN_APPROVAL ( #51, ( #272 ) ) ;
#35 = EDGE_LOOP ( 'NONE', ( #61 ) ) ;
#36 = ADVANCED_FACE ( 'NONE', ( #82, #261 ), #176, .T. ) ;
#37 = AXIS2_PLACEMENT_3D ( 'NONE', #128, #22, #109 ) ;
#38 = CALENDAR_DATE ( 2021, 1, 12 ) ;
#39 = COORDINATED_UNIVERSAL_TIME_OFFSET ( 1, 0, .AHEAD. ) ;
#40 = ORIENTED_EDGE ( 'NONE', *, *, #12, .T. ) ;
#41 = ORIENTED_EDGE ( 'NONE', *, *, #59, .T. ) ;
#42 = FACE_OUTER_BOUND ( 'NONE', #281, .T. ) ;
#43 = FACE_OUTER_BOUND ( 'NONE', #77, .T. ) ;
#44 = CIRCLE ( 'NONE', #242, 0.3703844939755815968 ) ;
#45 = CARTESIAN_POINT ( 'NONE',  ( 1.396592535537253342E-14, 2.549591630525148149E-33, 4.000000000000000000 ) ) ;
#46 = PERSON_AND_ORGANIZATION_ROLE ( 'design_supplier' ) ;
#47 = VERTEX_POINT ( 'NONE', #9 ) ;
#48 = FACE_OUTER_BOUND ( 'NONE', #2, .T. ) ;
#49 = PERSON_AND_ORGANIZATION ( #161, #219 ) ;
#50 = LOCAL_TIME ( 8, 27, 19.00000000000000000, #152 ) ;
#51 = APPROVAL ( #184, 'UNSPECIFIED' ) ;
#52 = AXIS2_PLACEMENT_3D ( 'NONE', #218, #107, #145 ) ;
#53 = APPROVAL_PERSON_ORGANIZATION ( #49, #122, #248 ) ;
#54 = ORIENTED_EDGE ( 'NONE', *, *, #59, .F. ) ;
#55 = CLOSED_SHELL ( 'NONE', ( #276, #36, #116, #125 ) ) ;
#56 = ORIENTED_EDGE ( 'NONE', *, *, #267, .T. ) ;
#57 = AXIS2_PLACEMENT_3D ( 'NONE', #228, #209, #98 ) ;
#58 = ORIENTED_EDGE ( 'NONE', *, *, #155, .T. ) ;
#59 = EDGE_CURVE ( 'NONE', #47, #47, #5, .T. ) ;
#60 = FACE_OUTER_BOUND ( 'NONE', #278, .T. ) ;
#61 = ORIENTED_EDGE ( 'NONE', *, *, #91, .T. ) ;
#62 = AXIS2_PLACEMENT_3D ( 'NONE', #85, #217, #20 ) ;
#63 = DIRECTION ( 'NONE',  ( -4.248374877324795686E-31, -1.000000000000000000, -1.195811219653132907E-16 ) ) ;
#64 = COORDINATED_UNIVERSAL_TIME_OFFSET ( 1, 0, .AHEAD. ) ;
#65 = DIRECTION ( 'NONE',  ( 3.491481338843133355E-15, -1.224646799147353207E-16, 1.000000000000000000 ) ) ;
#66 = AXIS2_PLACEMENT_3D ( 'NONE', #94, #138, #114 ) ;
#67 = VERTEX_POINT ( 'NONE', #69 ) ;
#68 = ADVANCED_FACE ( 'NONE', ( #6 ), #214, .F. ) ;
#69 = CARTESIAN_POINT ( 'NONE',  ( 1.316288464743861212E-13, 1.499999999999998668, 37.69999999999999574 ) ) ;
#70 = VERTEX_POINT ( 'NONE', #158 ) ;
#71 = CARTESIAN_POINT ( 'NONE',  ( 4.802066202702301174E-14, -1.684338088537976495E-15, 13.75366423780863379 ) ) ;
#72 = EDGE_CURVE ( 'NONE', #90, #90, #226, .T. ) ;
#73 = UNCERTAINTY_MEASURE_WITH_UNIT (LENGTH_MEASURE( 1.000000000000000082E-05 ), #182, 'distance_accuracy_value', 'NONE');
#74 = DATE_AND_TIME ( #275, #79 ) ;
#75 = CC_DESIGN_DATE_AND_TIME_ASSIGNMENT ( #81, #150, ( #272 ) ) ;
#76 = ORIENTED_EDGE ( 'NONE', *, *, #155, .F. ) ;
#77 = EDGE_LOOP ( 'NONE', ( #40 ) ) ;
#78 = AXIS2_PLACEMENT_3D ( 'NONE', #71, #160, #32 ) ;
#79 = LOCAL_TIME ( 8, 27, 19.00000000000000000, #186 ) ;
#80 = DIRECTION ( 'NONE',  ( 3.491481338843133355E-15, -1.224646799147353207E-16, 1.000000000000000000 ) ) ;
#81 = DATE_AND_TIME ( #38, #120 ) ;
#82 = FACE_BOUND ( 'NONE', #19, .T. ) ;
#83 = ORIENTED_EDGE ( 'NONE', *, *, #189, .T. ) ;
#84 = CC_DESIGN_PERSON_AND_ORGANIZATION_ASSIGNMENT ( #229, #231, ( #159 ) ) ;
#85 = CARTESIAN_POINT ( 'NONE',  ( 1.326762908760390423E-13, -4.653657836759941941E-15, 38.00000000000000000 ) ) ;
#86 = CONICAL_SURFACE ( 'NONE', #78, 1.499999999999997113, 0.1745329251994260367 ) ;
#87 = CARTESIAN_POINT ( 'NONE',  ( 0.0000000000000000000, 0.0000000000000000000, 0.0000000000000000000 ) ) ;
#88 = FACE_BOUND ( 'NONE', #142, .T. ) ;
#89 = PERSON_AND_ORGANIZATION ( #161, #219 ) ;
#90 = VERTEX_POINT ( 'NONE', #181 ) ;
#91 = EDGE_CURVE ( 'NONE', #177, #177, #17, .T. ) ;
#92 = APPROVAL_PERSON_ORGANIZATION ( #265, #24, #180 ) ;
#93 = FACE_OUTER_BOUND ( 'NONE', #101, .T. ) ;
#94 = CARTESIAN_POINT ( 'NONE',  ( 1.396592535537253342E-14, -4.898587196589412829E-16, 4.000000000000000000 ) ) ;
#95 = VERTEX_POINT ( 'NONE', #247 ) ;
#96 = AXIS2_PLACEMENT_3D ( 'NONE', #124, #108, #21 ) ;
#97 = CONICAL_SURFACE ( 'NONE', #183, 1.200000000000003286, 0.7853981633974453924 ) ;
#98 = DIRECTION ( 'NONE',  ( 1.000000000000000000, 0.0000000000000000000, 0.0000000000000000000 ) ) ;
#99 = EDGE_LOOP ( 'NONE', ( #191 ) ) ;
#100 =( NAMED_UNIT ( * ) PLANE_ANGLE_UNIT ( ) SI_UNIT ( $, .RADIAN. ) );
#101 = EDGE_LOOP ( 'NONE', ( #171 ) ) ;
#102 = ORIENTED_EDGE ( 'NONE', *, *, #189, .F. ) ;
#103 = MECHANICAL_CONTEXT ( 'NONE', #210, 'mechanical' ) ;
#104 = CC_DESIGN_PERSON_AND_ORGANIZATION_ASSIGNMENT ( #89, #157, ( #172 ) ) ;
#105 = DIRECTION ( 'NONE',  ( 4.275831445896958607E-31, 1.000000000000000000, 1.224646799147353207E-16 ) ) ;
#106 = CC_DESIGN_APPROVAL ( #24, ( #172 ) ) ;
#107 = DIRECTION ( 'NONE',  ( -3.491481338843133355E-15, 1.224646799147353207E-16, -1.000000000000000000 ) ) ;
#108 = DIRECTION ( 'NONE',  ( -3.491481338843133355E-15, 1.224646799147353207E-16, -1.000000000000000000 ) ) ;
#109 = DIRECTION ( 'NONE',  ( 4.248374877324795686E-31, 1.000000000000000000, 1.195811219653132907E-16 ) ) ;
#110 = CC_DESIGN_APPROVAL ( #122, ( #268 ) ) ;
#111 = CALENDAR_DATE ( 2021, 1, 12 ) ;
#112 = CARTESIAN_POINT ( 'NONE',  ( 0.0000000000000000000, 0.0000000000000000000, 0.0000000000000000000 ) ) ;
#113 = EDGE_CURVE ( 'NONE', #70, #70, #129, .T. ) ;
#114 = DIRECTION ( 'NONE',  ( 0.0000000000000000000, 1.000000000000000000, 0.0000000000000000000 ) ) ;
#115 = FACE_OUTER_BOUND ( 'NONE', #198, .T. ) ;
#116 = ADVANCED_FACE ( 'NONE', ( #60, #43 ), #146, .T. ) ;
#117 = APPROVAL_DATE_TIME ( #222, #24 ) ;
#118 = DIRECTION ( 'NONE',  ( 0.0000000000000000000, 1.000000000000000000, 0.0000000000000000000 ) ) ;
#119 = CIRCLE ( 'NONE', #33, 1.500000000000003331 ) ;
#120 = LOCAL_TIME ( 8, 27, 19.00000000000000000, #39 ) ;
#121 = ORIENTED_EDGE ( 'NONE', *, *, #113, .T. ) ;
#122 = APPROVAL ( #27, 'UNSPECIFIED' ) ;
#123 = CARTESIAN_POINT ( 'NONE',  ( 3.491481338843132862E-16, -1.224646799147352961E-17, 0.09999999999999997780 ) ) ;
#124 = CARTESIAN_POINT ( 'NONE',  ( 1.326762908760390423E-13, 8.998558695971103225E-33, 38.00000000000000000 ) ) ;
#125 = ADVANCED_FACE ( 'NONE', ( #168 ), #173, .T. ) ;
#126 = PERSON_AND_ORGANIZATION_ROLE ( 'creator' ) ;
#127 = PRODUCT_DEFINITION_SHAPE ( 'NONE', 'NONE',  #272 ) ;
#128 = CARTESIAN_POINT ( 'NONE',  ( 3.491481338843132862E-16, -1.224646799147352961E-17, 0.09999999999999997780 ) ) ;
#129 = CIRCLE ( 'NONE', #37, 0.3399999999999991362 ) ;
#130 = FACE_OUTER_BOUND ( 'NONE', #35, .T. ) ;
#131 = ADVANCED_FACE ( 'NONE', ( #237, #42 ), #86, .T. ) ;
#132 = DIRECTION ( 'NONE',  ( -3.491481338843133355E-15, 1.224646799147353207E-16, -1.000000000000000000 ) ) ;
#133 = SHAPE_DEFINITION_REPRESENTATION ( #127, #149 ) ;
#134 = VERTEX_POINT ( 'NONE', #224 ) ;
#135 = APPROVAL_STATUS ( 'not_yet_approved' ) ;
#136 = DIRECTION ( 'NONE',  ( 0.0000000000000000000, 1.000000000000000000, 0.0000000000000000000 ) ) ;
#137 = CIRCLE ( 'NONE', #52, 0.3399999999999996358 ) ;
#138 = DIRECTION ( 'NONE',  ( -3.491481338843133355E-15, 1.224646799147353207E-16, -1.000000000000000000 ) ) ;
#139 = DESIGN_CONTEXT ( 'detailed design', #270, 'design' ) ;
#140 = ADVANCED_FACE ( 'NONE', ( #178 ), #220, .F. ) ;
#141 = LOCAL_TIME ( 8, 27, 19.00000000000000000, #202 ) ;
#142 = EDGE_LOOP ( 'NONE', ( #41 ) ) ;
#143 = ORIENTED_EDGE ( 'NONE', *, *, #72, .T. ) ;
#144 = EDGE_CURVE ( 'NONE', #269, #269, #44, .T. ) ;
#145 = DIRECTION ( 'NONE',  ( 0.0000000000000000000, 1.000000000000000000, 0.0000000000000000000 ) ) ;
#146 = CYLINDRICAL_SURFACE ( 'NONE', #14, 0.3399999999999993583 ) ;
#147 = AXIS2_PLACEMENT_3D ( 'NONE', #112, #132, #245 ) ;
#148 = EDGE_LOOP ( 'NONE', ( #56 ) ) ;
#149 = ADVANCED_BREP_SHAPE_REPRESENTATION ( '200751', ( #3, #1, #57 ), #244 ) ;
#150 = DATE_TIME_ROLE ( 'creation_date' ) ;
#151 = EDGE_LOOP ( 'NONE', ( #58 ) ) ;
#152 = COORDINATED_UNIVERSAL_TIME_OFFSET ( 1, 0, .AHEAD. ) ;
#153 = CARTESIAN_POINT ( 'NONE',  ( 1.326762908760390423E-13, -4.653657836759941941E-15, 38.00000000000000000 ) ) ;
#154 = FACE_OUTER_BOUND ( 'NONE', #99, .T. ) ;
#155 = EDGE_CURVE ( 'NONE', #67, #67, #119, .T. ) ;
#156 = CARTESIAN_POINT ( 'NONE',  ( 2.565294811559829736E-14, -8.997842963946611302E-16, 7.347296355333847728 ) ) ;
#157 = PERSON_AND_ORGANIZATION_ROLE ( 'creator' ) ;
#158 = CARTESIAN_POINT ( 'NONE',  ( 3.491481338843134341E-16, 0.3399999999999991362, 0.1000000000000000194 ) ) ;
#159 = PRODUCT ( '200751', '200751', '', ( #103 ) ) ;
#160 = DIRECTION ( 'NONE',  ( 3.491481338843133355E-15, -1.224646799147353207E-16, 1.000000000000000000 ) ) ;
#161 = PERSON ( 'UNSPECIFIED', 'UNSPECIFIED', 'UNSPECIFIED', ('UNSPECIFIED'), ('UNSPECIFIED'), ('UNSPECIFIED') ) ;
#162 = APPROVAL_DATE_TIME ( #74, #51 ) ;
#163 = EDGE_LOOP ( 'NONE', ( #121 ) ) ;
#164 = EDGE_LOOP ( 'NONE', ( #143 ) ) ;
#165 = EDGE_LOOP ( 'NONE', ( #54 ) ) ;
#166 = AXIS2_PLACEMENT_3D ( 'NONE', #192, #80, #263 ) ;
#167 = AXIS2_PLACEMENT_3D ( 'NONE', #8, #221, #201 ) ;
#168 = FACE_OUTER_BOUND ( 'NONE', #212, .T. ) ;
#169 = DIRECTION ( 'NONE',  ( 3.491481338843133355E-15, -1.224646799147353207E-16, 1.000000000000000000 ) ) ;
#170 = CC_DESIGN_DATE_AND_TIME_ASSIGNMENT ( #204, #10, ( #268 ) ) ;
#171 = ORIENTED_EDGE ( 'NONE', *, *, #267, .F. ) ;
#172 = PRODUCT_DEFINITION_FORMATION_WITH_SPECIFIED_SOURCE ( 'ANY', '', #159, .NOT_KNOWN. ) ;
#173 = PLANE ( 'NONE',  #166 ) ;
#174 = CALENDAR_DATE ( 2021, 1, 12 ) ;
#175 = DIRECTION ( 'NONE',  ( -3.491481338843133355E-15, 1.224646799147353207E-16, -1.000000000000000000 ) ) ;
#176 = CONICAL_SURFACE ( 'NONE', #188, 0.3399999999999991362, 0.5235987755982921543 ) ;
#177 = VERTEX_POINT ( 'NONE', #273 ) ;
#178 = FACE_OUTER_BOUND ( 'NONE', #148, .T. ) ;
#179 = ADVANCED_FACE ( 'NONE', ( #115, #88 ), #97, .T. ) ;
#180 = APPROVAL_ROLE ( '' ) ;
#181 = CARTESIAN_POINT ( 'NONE',  ( 2.444036937190193349E-14, 0.3399999999999991362, 7.000000000000000000 ) ) ;
#182 =( LENGTH_UNIT ( ) NAMED_UNIT ( * ) SI_UNIT ( .MILLI., .METRE. ) );
#183 = AXIS2_PLACEMENT_3D ( 'NONE', #153, #274, #136 ) ;
#184 = APPROVAL_STATUS ( 'not_yet_approved' ) ;
#185 = APPROVAL_ROLE ( '' ) ;
#186 = COORDINATED_UNIVERSAL_TIME_OFFSET ( 1, 0, .AHEAD. ) ;
#187 = ORIENTED_EDGE ( 'NONE', *, *, #144, .F. ) ;
#188 = AXIS2_PLACEMENT_3D ( 'NONE', #123, #169, #63 ) ;
#189 = EDGE_CURVE ( 'NONE', #134, #134, #215, .T. ) ;
#190 = CIRCLE ( 'NONE', #66, 0.3399999999999996358 ) ;
#191 = ORIENTED_EDGE ( 'NONE', *, *, #144, .T. ) ;
#192 = CARTESIAN_POINT ( 'NONE',  ( 1.396592535537253342E-14, 2.549591630525148149E-33, 4.000000000000000000 ) ) ;
#193 = AXIS2_PLACEMENT_3D ( 'NONE', #259, #216, #282 ) ;
#194 = LOCAL_TIME ( 8, 27, 19.00000000000000000, #64 ) ;
#195 = CC_DESIGN_PERSON_AND_ORGANIZATION_ASSIGNMENT ( #225, #7, ( #268 ) ) ;
#196 = DIRECTION ( 'NONE',  ( 4.275831445896959482E-31, 1.000000000000000000, 1.224646799147353207E-16 ) ) ;
#197 = ORIENTED_EDGE ( 'NONE', *, *, #72, .F. ) ;
#198 = EDGE_LOOP ( 'NONE', ( #76 ) ) ;
#199 = FACE_OUTER_BOUND ( 'NONE', #18, .T. ) ;
#200 = CARTESIAN_POINT ( 'NONE',  ( 1.316288464743861212E-13, -4.616918432785521081E-15, 37.69999999999999574 ) ) ;
#201 = DIRECTION ( 'NONE',  ( -4.275831445896958607E-31, -1.000000000000000000, -1.224646799147353207E-16 ) ) ;
#202 = COORDINATED_UNIVERSAL_TIME_OFFSET ( 1, 0, .AHEAD. ) ;
#203 = DIRECTION ( 'NONE',  ( -3.491481338843133355E-15, 1.224646799147353207E-16, -1.000000000000000000 ) ) ;
#204 = DATE_AND_TIME ( #29, #141 ) ;
#205 = CARTESIAN_POINT ( 'NONE',  ( 4.802066202702301174E-14, -1.684338088537976495E-15, 13.75366423780863379 ) ) ;
#206 = PERSON_AND_ORGANIZATION ( #161, #219 ) ;
#207 = CARTESIAN_POINT ( 'NONE',  ( 2.565294811559829736E-14, 0.3703844939755806531, 7.347296355333847728 ) ) ;
#208 = APPLICATION_PROTOCOL_DEFINITION ( 'international standard', 'config_control_design', 1994, #270 ) ;
#209 = DIRECTION ( 'NONE',  ( 0.0000000000000000000, 0.0000000000000000000, 1.000000000000000000 ) ) ;
#210 = APPLICATION_CONTEXT ( 'configuration controlled 3d designs of mechanical parts and assemblies' ) ;
#211 = CC_DESIGN_SECURITY_CLASSIFICATION ( #268, ( #172 ) ) ;
#212 = EDGE_LOOP ( 'NONE', ( #233 ) ) ;
#213 = DIRECTION ( 'NONE',  ( -3.491481338843133355E-15, 1.224646799147353207E-16, -1.000000000000000000 ) ) ;
#214 = PLANE ( 'NONE',  #96 ) ;
#215 = CIRCLE ( 'NONE', #238, 1.499999999999997113 ) ;
#216 = DIRECTION ( 'NONE',  ( -3.491481338843133355E-15, 1.224646799147353207E-16, -1.000000000000000000 ) ) ;
#217 = DIRECTION ( 'NONE',  ( -3.491481338843133355E-15, 1.224646799147353207E-16, -1.000000000000000000 ) ) ;
#218 = CARTESIAN_POINT ( 'NONE',  ( 1.396592535537253342E-14, -4.898587196589412829E-16, 4.000000000000000000 ) ) ;
#219 = ORGANIZATION ( 'UNSPECIFIED', 'UNSPECIFIED', '' ) ;
#220 = PLANE ( 'NONE',  #250 ) ;
#221 = DIRECTION ( 'NONE',  ( 3.491481338843133355E-15, -1.224646799147353207E-16, 1.000000000000000000 ) ) ;
#222 = DATE_AND_TIME ( #111, #194 ) ;
#223 = PRODUCT_RELATED_PRODUCT_CATEGORY ( 'detail', '', ( #159 ) ) ;
#224 = CARTESIAN_POINT ( 'NONE',  ( 4.802066202702301174E-14, 1.499999999999995559, 13.75366423780863379 ) ) ;
#225 = PERSON_AND_ORGANIZATION ( #161, #219 ) ;
#226 = CIRCLE ( 'NONE', #262, 0.3400000000000000244 ) ;
#227 = DIRECTION ( 'NONE',  ( 0.0000000000000000000, 1.000000000000000000, 0.0000000000000000000 ) ) ;
#228 = CARTESIAN_POINT ( 'NONE',  ( 0.0000000000000000000, 0.0000000000000000000, 0.0000000000000000000 ) ) ;
#229 = PERSON_AND_ORGANIZATION ( #161, #219 ) ;
#230 = APPROVAL_PERSON_ORGANIZATION ( #15, #51, #185 ) ;
#231 = PERSON_AND_ORGANIZATION_ROLE ( 'design_owner' ) ;
#232 = ADVANCED_FACE ( 'NONE', ( #93, #13 ), #271, .T. ) ;
#233 = ORIENTED_EDGE ( 'NONE', *, *, #12, .F. ) ;
#234 = AXIS2_PLACEMENT_3D ( 'NONE', #239, #4, #196 ) ;
#235 = PERSON_AND_ORGANIZATION ( #161, #219 ) ;
#236 = CYLINDRICAL_SURFACE ( 'NONE', #234, 1.500000000000000222 ) ;
#237 = FACE_BOUND ( 'NONE', #240, .T. ) ;
#238 = AXIS2_PLACEMENT_3D ( 'NONE', #205, #203, #25 ) ;
#239 = CARTESIAN_POINT ( 'NONE',  ( 0.0000000000000000000, 0.0000000000000000000, 0.0000000000000000000 ) ) ;
#240 = EDGE_LOOP ( 'NONE', ( #187 ) ) ;
#241 = CARTESIAN_POINT ( 'NONE',  ( 2.444036937190193349E-14, -8.572527594031473190E-16, 7.000000000000000000 ) ) ;
#242 = AXIS2_PLACEMENT_3D ( 'NONE', #156, #249, #118 ) ;
#243 = DATE_AND_TIME ( #174, #50 ) ;
#244 =( GEOMETRIC_REPRESENTATION_CONTEXT ( 3 ) GLOBAL_UNCERTAINTY_ASSIGNED_CONTEXT ( ( #73 ) ) GLOBAL_UNIT_ASSIGNED_CONTEXT ( ( #182, #100, #280 ) ) REPRESENTATION_CONTEXT ( 'NONE', 'WORKASPACE' ) );
#245 = DIRECTION ( 'NONE',  ( 4.275831445896958607E-31, 1.000000000000000000, 1.224646799147353207E-16 ) ) ;
#246 = CC_DESIGN_PERSON_AND_ORGANIZATION_ASSIGNMENT ( #235, #126, ( #272 ) ) ;
#247 = CARTESIAN_POINT ( 'NONE',  ( 1.396592535537253342E-14, 0.3399999999999991362, 4.000000000000000000 ) ) ;
#248 = APPROVAL_ROLE ( '' ) ;
#249 = DIRECTION ( 'NONE',  ( -3.491481338843133355E-15, 1.224646799147353207E-16, -1.000000000000000000 ) ) ;
#250 = AXIS2_PLACEMENT_3D ( 'NONE', #45, #65, #11 ) ;
#251 = CARTESIAN_POINT ( 'NONE',  ( 1.396592535537253342E-14, 0.3399999999999991362, 4.000000000000000000 ) ) ;
#252 = ADVANCED_FACE ( 'NONE', ( #48, #154 ), #279, .F. ) ;
#253 = DIRECTION ( 'NONE',  ( -3.491481338843133355E-15, 1.224646799147353207E-16, -1.000000000000000000 ) ) ;
#254 = APPLICATION_PROTOCOL_DEFINITION ( 'international standard', 'config_control_design', 1994, #210 ) ;
#255 = ORIENTED_EDGE ( 'NONE', *, *, #91, .F. ) ;
#256 = ORIENTED_EDGE ( 'NONE', *, *, #113, .F. ) ;
#257 = CC_DESIGN_PERSON_AND_ORGANIZATION_ASSIGNMENT ( #206, #46, ( #172 ) ) ;
#258 = AXIS2_PLACEMENT_3D ( 'NONE', #30, #253, #26 ) ;
#259 = CARTESIAN_POINT ( 'NONE',  ( -1.206917447975158480E-31, 4.233296546810718912E-33, -3.456748957951063890E-17 ) ) ;
#260 = FACE_OUTER_BOUND ( 'NONE', #151, .T. ) ;
#261 = FACE_OUTER_BOUND ( 'NONE', #163, .T. ) ;
#262 = AXIS2_PLACEMENT_3D ( 'NONE', #241, #283, #23 ) ;
#263 = DIRECTION ( 'NONE',  ( -4.275831445896958607E-31, -1.000000000000000000, -1.224646799147353207E-16 ) ) ;
#264 = APPROVAL_DATE_TIME ( #243, #122 ) ;
#265 = PERSON_AND_ORGANIZATION ( #161, #219 ) ;
#266 = PLANE ( 'NONE',  #167 ) ;
#267 = EDGE_CURVE ( 'NONE', #28, #28, #190, .T. ) ;
#268 = SECURITY_CLASSIFICATION ( '', '', #31 ) ;
#269 = VERTEX_POINT ( 'NONE', #207 ) ;
#270 = APPLICATION_CONTEXT ( 'configuration controlled 3d designs of mechanical parts and assemblies' ) ;
#271 = CYLINDRICAL_SURFACE ( 'NONE', #147, 0.3399999999999998024 ) ;
#272 = PRODUCT_DEFINITION ( 'UNKNOWN', '', #172, #139 ) ;
#273 = CARTESIAN_POINT ( 'NONE',  ( 0.0000000000000000000, 0.2822649730810374846, 0.0000000000000000000 ) ) ;
#274 = DIRECTION ( 'NONE',  ( -3.491481338843133355E-15, 1.224646799147353207E-16, -1.000000000000000000 ) ) ;
#275 = CALENDAR_DATE ( 2021, 1, 12 ) ;
#276 = ADVANCED_FACE ( 'NONE', ( #130 ), #266, .F. ) ;
#277 = CLOSED_SHELL ( 'NONE', ( #140, #232, #252, #131, #16, #179, #68 ) ) ;
#278 = EDGE_LOOP ( 'NONE', ( #256 ) ) ;
#279 = TOROIDAL_SURFACE ( 'NONE', #258, 2.339999999999999858, 2.000000000000000000 ) ;
#280 =( NAMED_UNIT ( * ) SI_UNIT ( $, .STERADIAN. ) SOLID_ANGLE_UNIT ( ) );
#281 = EDGE_LOOP ( 'NONE', ( #83 ) ) ;
#282 = DIRECTION ( 'NONE',  ( 4.275831445896957731E-31, 1.000000000000000000, 1.224646799147353207E-16 ) ) ;
#283 = DIRECTION ( 'NONE',  ( -3.491481338843133355E-15, 1.224646799147353207E-16, -1.000000000000000000 ) ) ;
ENDSEC;
END-ISO-10303-21;
