ISO-10303-21;
HEADER;
FILE_DESCRIPTION (( 'STEP AP203' ),
    '1' );
FILE_NAME ('200750.step',
    '2021-12-01T07:27:19',
    ( '' ),
    ( '' ),
    'SwSTEP 2.0',
    'SolidWorks 2019',
    '' );
FILE_SCHEMA (( 'CONFIG_CONTROL_DESIGN' ));
ENDSEC;

DATA;
#1 = APPLICATION_PROTOCOL_DEFINITION ( 'international standard', 'config_control_design', 1994, #140 ) ;
#2 = FACE_OUTER_BOUND ( 'NONE', #252, .T. ) ;
#3 = COORDINATED_UNIVERSAL_TIME_OFFSET ( 1, 0, .AHEAD. ) ;
#4 = EDGE_CURVE ( 'NONE', #211, #211, #121, .T. ) ;
#5 =( NAMED_UNIT ( * ) PLANE_ANGLE_UNIT ( ) SI_UNIT ( $, .RADIAN. ) );
#6 = PLANE ( 'NONE',  #163 ) ;
#7 = AXIS2_PLACEMENT_3D ( 'NONE', #248, #10, #11 ) ;
#8 = EDGE_LOOP ( 'NONE', ( #254 ) ) ;
#9 = PERSON_AND_ORGANIZATION ( #17, #227 ) ;
#10 = DIRECTION ( 'NONE',  ( -3.491481338843133355E-15, 1.224646799147353207E-16, -1.000000000000000000 ) ) ;
#11 = DIRECTION ( 'NONE',  ( 0.0000000000000000000, 1.000000000000000000, 0.0000000000000000000 ) ) ;
#12 = DIRECTION ( 'NONE',  ( 3.491481338843133355E-15, -1.224646799147353207E-16, 1.000000000000000000 ) ) ;
#13 = AXIS2_PLACEMENT_3D ( 'NONE', #270, #95, #158 ) ;
#14 = ADVANCED_FACE ( 'NONE', ( #2 ), #6, .F. ) ;
#15 = CARTESIAN_POINT ( 'NONE',  ( 1.396592535537253342E-14, 0.3099999999999990541, 4.000000000000000000 ) ) ;
#16 = CARTESIAN_POINT ( 'NONE',  ( 0.0000000000000000000, 0.0000000000000000000, 0.0000000000000000000 ) ) ;
#17 = PERSON ( 'UNSPECIFIED', 'UNSPECIFIED', 'UNSPECIFIED', ('UNSPECIFIED'), ('UNSPECIFIED'), ('UNSPECIFIED') ) ;
#18 = LOCAL_TIME ( 8, 27, 19.00000000000000000, #247 ) ;
#19 = DIRECTION ( 'NONE',  ( 3.491481338843133355E-15, -1.224646799147353207E-16, 1.000000000000000000 ) ) ;
#20 = ADVANCED_FACE ( 'NONE', ( #60, #129 ), #224, .T. ) ;
#21 = EDGE_LOOP ( 'NONE', ( #173 ) ) ;
#22 = CC_DESIGN_PERSON_AND_ORGANIZATION_ASSIGNMENT ( #152, #54, ( #258 ) ) ;
#23 = CARTESIAN_POINT ( 'NONE',  ( 1.396592535537253342E-14, -4.898587196589412829E-16, 4.000000000000000000 ) ) ;
#24 = PERSON_AND_ORGANIZATION ( #17, #227 ) ;
#25 = DIRECTION ( 'NONE',  ( 4.275831445896958607E-31, 1.000000000000000000, 1.224646799147353207E-16 ) ) ;
#26 = CIRCLE ( 'NONE', #214, 1.499999999999997113 ) ;
#27 = EDGE_LOOP ( 'NONE', ( #58 ) ) ;
#28 = EDGE_CURVE ( 'NONE', #153, #153, #70, .T. ) ;
#29 = DIRECTION ( 'NONE',  ( -3.491481338843133355E-15, 1.224646799147353207E-16, -1.000000000000000000 ) ) ;
#30 = FACE_OUTER_BOUND ( 'NONE', #88, .T. ) ;
#31 = DATE_TIME_ROLE ( 'classification_date' ) ;
#32 = DIRECTION ( 'NONE',  ( -3.491481338843133355E-15, 1.224646799147353207E-16, -1.000000000000000000 ) ) ;
#33 = CYLINDRICAL_SURFACE ( 'NONE', #94, 0.3099999999999993316 ) ;
#34 = PERSON_AND_ORGANIZATION_ROLE ( 'design_supplier' ) ;
#35 = AXIS2_PLACEMENT_3D ( 'NONE', #178, #207, #242 ) ;
#36 =( GEOMETRIC_REPRESENTATION_CONTEXT ( 3 ) GLOBAL_UNCERTAINTY_ASSIGNED_CONTEXT ( ( #116 ) ) GLOBAL_UNIT_ASSIGNED_CONTEXT ( ( #190, #5, #104 ) ) REPRESENTATION_CONTEXT ( 'NONE', 'WORKASPACE' ) );
#37 = ADVANCED_FACE ( 'NONE', ( #144, #151 ), #147, .T. ) ;
#38 = EDGE_LOOP ( 'NONE', ( #100 ) ) ;
#39 = FACE_OUTER_BOUND ( 'NONE', #193, .T. ) ;
#40 = ORIENTED_EDGE ( 'NONE', *, *, #268, .T. ) ;
#41 = FACE_OUTER_BOUND ( 'NONE', #235, .T. ) ;
#42 = DIRECTION ( 'NONE',  ( 0.0000000000000000000, 1.000000000000000000, 0.0000000000000000000 ) ) ;
#43 = PRODUCT_RELATED_PRODUCT_CATEGORY ( 'detail', '', ( #184 ) ) ;
#44 = CONICAL_SURFACE ( 'NONE', #160, 1.499999999999997113, 0.1745329251994261477 ) ;
#45 = AXIS2_PLACEMENT_3D ( 'NONE', #271, #32, #159 ) ;
#46 = PERSON_AND_ORGANIZATION_ROLE ( 'design_owner' ) ;
#47 = DIRECTION ( 'NONE',  ( -4.275831445896958607E-31, -1.000000000000000000, -1.224646799147353207E-16 ) ) ;
#48 = DIRECTION ( 'NONE',  ( -3.491481338843133355E-15, 1.224646799147353207E-16, -1.000000000000000000 ) ) ;
#49 = DIRECTION ( 'NONE',  ( -3.491481338843133355E-15, 1.224646799147353207E-16, -1.000000000000000000 ) ) ;
#50 = CC_DESIGN_APPROVAL ( #210, ( #258 ) ) ;
#51 = CARTESIAN_POINT ( 'NONE',  ( 4.861469726623851142E-14, 1.499999999999995559, 13.92380269239717450 ) ) ;
#52 = PERSON_AND_ORGANIZATION ( #17, #227 ) ;
#53 = DIRECTION ( 'NONE',  ( -3.491481338843133355E-15, 1.224646799147353207E-16, -1.000000000000000000 ) ) ;
#54 = PERSON_AND_ORGANIZATION_ROLE ( 'creator' ) ;
#55 = CARTESIAN_POINT ( 'NONE',  ( 3.491481338843132369E-16, -1.224646799147352807E-17, 0.09999999999999996392 ) ) ;
#56 = CARTESIAN_POINT ( 'NONE',  ( 1.326762908760390423E-13, -4.653657836759941941E-15, 38.00000000000000000 ) ) ;
#57 = APPROVAL_STATUS ( 'not_yet_approved' ) ;
#58 = ORIENTED_EDGE ( 'NONE', *, *, #28, .F. ) ;
#59 = CIRCLE ( 'NONE', #35, 0.3099999999999999423 ) ;
#60 = FACE_OUTER_BOUND ( 'NONE', #38, .T. ) ;
#61 = PERSON_AND_ORGANIZATION ( #17, #227 ) ;
#62 = ADVANCED_FACE ( 'NONE', ( #196 ), #146, .F. ) ;
#63 = DIRECTION ( 'NONE',  ( 4.275831445896958607E-31, 1.000000000000000000, 1.224646799147353207E-16 ) ) ;
#64 = ORIENTED_EDGE ( 'NONE', *, *, #194, .F. ) ;
#65 = CARTESIAN_POINT ( 'NONE',  ( 0.0000000000000000000, 0.0000000000000000000, 0.0000000000000000000 ) ) ;
#66 = CARTESIAN_POINT ( 'NONE',  ( 1.396592535537253342E-14, 0.3099999999999990541, 4.000000000000000000 ) ) ;
#67 = CARTESIAN_POINT ( 'NONE',  ( 1.396592535537253342E-14, 2.324627663125868892E-33, 4.000000000000000000 ) ) ;
#68 = DIRECTION ( 'NONE',  ( -3.491481338843133355E-15, 1.224646799147353207E-16, -1.000000000000000000 ) ) ;
#69 = APPROVAL_DATE_TIME ( #276, #118 ) ;
#70 = CIRCLE ( 'NONE', #233, 0.3099999999999995537 ) ;
#71 = SECURITY_CLASSIFICATION ( '', '', #267 ) ;
#72 = DIRECTION ( 'NONE',  ( 0.0000000000000000000, 1.000000000000000000, 0.0000000000000000000 ) ) ;
#73 = PERSON_AND_ORGANIZATION_ROLE ( 'classification_officer' ) ;
#74 = EDGE_CURVE ( 'NONE', #185, #185, #277, .T. ) ;
#75 = FACE_OUTER_BOUND ( 'NONE', #260, .T. ) ;
#76 = DATE_AND_TIME ( #136, #18 ) ;
#77 = CARTESIAN_POINT ( 'NONE',  ( 1.316288464743861212E-13, 1.499999999999998668, 37.69999999999999574 ) ) ;
#78 = TOROIDAL_SURFACE ( 'NONE', #275, 2.310000000000000053, 2.000000000000000444 ) ;
#79 = CARTESIAN_POINT ( 'NONE',  ( 0.0000000000000000000, 0.2522649730810374025, 0.0000000000000000000 ) ) ;
#80 = ADVANCED_FACE ( 'NONE', ( #165, #39 ), #44, .T. ) ;
#81 = APPROVAL_PERSON_ORGANIZATION ( #87, #166, #203 ) ;
#82 = EDGE_LOOP ( 'NONE', ( #216 ) ) ;
#83 = CLOSED_SHELL ( 'NONE', ( #246, #37, #232, #93 ) ) ;
#84 = ADVANCED_FACE ( 'NONE', ( #192, #41 ), #78, .F. ) ;
#85 = LOCAL_TIME ( 8, 27, 19.00000000000000000, #213 ) ;
#86 = DIRECTION ( 'NONE',  ( -3.491481338843133355E-15, 1.224646799147353207E-16, -1.000000000000000000 ) ) ;
#87 = PERSON_AND_ORGANIZATION ( #17, #227 ) ;
#88 = EDGE_LOOP ( 'NONE', ( #170 ) ) ;
#89 = ADVANCED_FACE ( 'NONE', ( #209, #229 ), #154, .T. ) ;
#90 = CIRCLE ( 'NONE', #164, 0.3403844939755805710 ) ;
#91 = CYLINDRICAL_SURFACE ( 'NONE', #13, 1.500000000000000222 ) ;
#92 = CARTESIAN_POINT ( 'NONE',  ( 4.861469726623851142E-14, -1.705174039920350016E-15, 13.92380269239717450 ) ) ;
#93 = ADVANCED_FACE ( 'NONE', ( #231 ), #228, .T. ) ;
#94 = AXIS2_PLACEMENT_3D ( 'NONE', #16, #53, #137 ) ;
#95 = DIRECTION ( 'NONE',  ( -3.491481338843133355E-15, 1.224646799147353207E-16, -1.000000000000000000 ) ) ;
#96 = APPROVAL_DATE_TIME ( #76, #210 ) ;
#97 = DIRECTION ( 'NONE',  ( 4.399057870042014844E-31, 1.000000000000000000, 1.224646799147353207E-16 ) ) ;
#98 = PRODUCT_DEFINITION_SHAPE ( 'NONE', 'NONE',  #220 ) ;
#99 = DIRECTION ( 'NONE',  ( 0.0000000000000000000, -1.000000000000000000, 0.0000000000000000000 ) ) ;
#100 = ORIENTED_EDGE ( 'NONE', *, *, #74, .F. ) ;
#101 = CIRCLE ( 'NONE', #45, 0.2522649730810374025 ) ;
#102 = EDGE_LOOP ( 'NONE', ( #221 ) ) ;
#103 = DIRECTION ( 'NONE',  ( -4.659507929969132391E-31, -1.000000000000000000, -1.311534886071178488E-16 ) ) ;
#104 =( NAMED_UNIT ( * ) SI_UNIT ( $, .STERADIAN. ) SOLID_ANGLE_UNIT ( ) );
#105 = CARTESIAN_POINT ( 'NONE',  ( 1.396592535537253342E-14, -4.898587196589412829E-16, 4.000000000000000000 ) ) ;
#106 = CARTESIAN_POINT ( 'NONE',  ( 1.316288464743861212E-13, -4.616918432785521081E-15, 37.69999999999999574 ) ) ;
#107 = ORIENTED_EDGE ( 'NONE', *, *, #268, .F. ) ;
#108 = COORDINATED_UNIVERSAL_TIME_OFFSET ( 1, 0, .AHEAD. ) ;
#109 = AXIS2_PLACEMENT_3D ( 'NONE', #105, #201, #238 ) ;
#110 = DIRECTION ( 'NONE',  ( 0.0000000000000000000, 1.000000000000000000, 0.0000000000000000000 ) ) ;
#111 = DIRECTION ( 'NONE',  ( -4.275831445896958607E-31, -1.000000000000000000, -1.224646799147353207E-16 ) ) ;
#112 = EDGE_CURVE ( 'NONE', #250, #250, #59, .T. ) ;
#113 = PLANE ( 'NONE',  #175 ) ;
#114 = CALENDAR_DATE ( 2021, 1, 12 ) ;
#115 = AXIS2_PLACEMENT_3D ( 'NONE', #243, #49, #63 ) ;
#116 = UNCERTAINTY_MEASURE_WITH_UNIT (LENGTH_MEASURE( 1.000000000000000082E-05 ), #190, 'distance_accuracy_value', 'NONE');
#117 = DIRECTION ( 'NONE',  ( 3.491481338843133355E-15, -1.224646799147353207E-16, 1.000000000000000000 ) ) ;
#118 = APPROVAL ( #57, 'UNSPECIFIED' ) ;
#119 = CARTESIAN_POINT ( 'NONE',  ( 1.396592535537253342E-14, 2.324627663125868892E-33, 4.000000000000000000 ) ) ;
#120 = PERSON_AND_ORGANIZATION ( #17, #227 ) ;
#121 = CIRCLE ( 'NONE', #239, 1.500000000000003331 ) ;
#122 = APPROVAL_PERSON_ORGANIZATION ( #187, #118, #249 ) ;
#123 = AXIS2_PLACEMENT_3D ( 'NONE', #169, #126, #25 ) ;
#124 = EDGE_LOOP ( 'NONE', ( #64 ) ) ;
#125 = APPROVAL_STATUS ( 'not_yet_approved' ) ;
#126 = DIRECTION ( 'NONE',  ( -3.491481338843133355E-15, 1.224646799147353207E-16, -1.000000000000000000 ) ) ;
#127 = ORIENTED_EDGE ( 'NONE', *, *, #142, .T. ) ;
#128 = DATE_AND_TIME ( #263, #195 ) ;
#129 = FACE_OUTER_BOUND ( 'NONE', #255, .T. ) ;
#130 = APPLICATION_PROTOCOL_DEFINITION ( 'international standard', 'config_control_design', 1994, #161 ) ;
#131 = CARTESIAN_POINT ( 'NONE',  ( 1.326762908760390423E-13, 1.199999999999998845, 38.00000000000000000 ) ) ;
#132 = APPROVAL_PERSON_ORGANIZATION ( #24, #210, #145 ) ;
#133 = CC_DESIGN_PERSON_AND_ORGANIZATION_ASSIGNMENT ( #9, #46, ( #184 ) ) ;
#134 = CARTESIAN_POINT ( 'NONE',  ( 2.444036937190193349E-14, -8.673617379884035472E-16, 7.000000000000000000 ) ) ;
#135 = DIRECTION ( 'NONE',  ( 4.659507929969132391E-31, 1.000000000000000000, 1.311534886071178488E-16 ) ) ;
#136 = CALENDAR_DATE ( 2021, 1, 12 ) ;
#137 = DIRECTION ( 'NONE',  ( 4.275831445896959482E-31, 1.000000000000000000, 1.224646799147353454E-16 ) ) ;
#138 = SHAPE_DEFINITION_REPRESENTATION ( #98, #172 ) ;
#139 = VERTEX_POINT ( 'NONE', #131 ) ;
#140 = APPLICATION_CONTEXT ( 'configuration controlled 3d designs of mechanical parts and assemblies' ) ;
#141 = EDGE_LOOP ( 'NONE', ( #283 ) ) ;
#142 = EDGE_CURVE ( 'NONE', #139, #139, #198, .T. ) ;
#143 = ORIENTED_EDGE ( 'NONE', *, *, #253, .T. ) ;
#144 = FACE_BOUND ( 'NONE', #141, .T. ) ;
#145 = APPROVAL_ROLE ( '' ) ;
#146 = PLANE ( 'NONE',  #123 ) ;
#147 = CONICAL_SURFACE ( 'NONE', #217, 0.3099999999999991096, 0.5235987755982927094 ) ;
#148 = ORIENTED_EDGE ( 'NONE', *, *, #112, .T. ) ;
#149 = MECHANICAL_CONTEXT ( 'NONE', #140, 'mechanical' ) ;
#150 = CARTESIAN_POINT ( 'NONE',  ( 3.491481338843133848E-16, 0.3099999999999991096, 0.1000000000000000056 ) ) ;
#151 = FACE_OUTER_BOUND ( 'NONE', #82, .T. ) ;
#152 = PERSON_AND_ORGANIZATION ( #17, #227 ) ;
#153 = VERTEX_POINT ( 'NONE', #66 ) ;
#154 = CONICAL_SURFACE ( 'NONE', #226, 1.200000000000003286, 0.7853981633974453924 ) ;
#155 = CC_DESIGN_APPROVAL ( #118, ( #71 ) ) ;
#156 = FACE_OUTER_BOUND ( 'NONE', #124, .T. ) ;
#157 = DATE_AND_TIME ( #189, #85 ) ;
#158 = DIRECTION ( 'NONE',  ( 4.275831445896959482E-31, 1.000000000000000000, 1.224646799147353207E-16 ) ) ;
#159 = DIRECTION ( 'NONE',  ( 4.275831445896957731E-31, 1.000000000000000000, 1.224646799147353207E-16 ) ) ;
#160 = AXIS2_PLACEMENT_3D ( 'NONE', #215, #19, #99 ) ;
#161 = APPLICATION_CONTEXT ( 'configuration controlled 3d designs of mechanical parts and assemblies' ) ;
#162 = CC_DESIGN_DATE_AND_TIME_ASSIGNMENT ( #205, #219, ( #220 ) ) ;
#163 = AXIS2_PLACEMENT_3D ( 'NONE', #67, #241, #47 ) ;
#164 = AXIS2_PLACEMENT_3D ( 'NONE', #230, #182, #72 ) ;
#165 = FACE_BOUND ( 'NONE', #257, .T. ) ;
#166 = APPROVAL ( #125, 'UNSPECIFIED' ) ;
#167 = ORIENTED_EDGE ( 'NONE', *, *, #28, .T. ) ;
#168 = ORIENTED_EDGE ( 'NONE', *, *, #74, .T. ) ;
#169 = CARTESIAN_POINT ( 'NONE',  ( 1.326762908760390423E-13, 8.998558695971103225E-33, 38.00000000000000000 ) ) ;
#170 = ORIENTED_EDGE ( 'NONE', *, *, #4, .T. ) ;
#171 = DIRECTION ( 'NONE',  ( 0.0000000000000000000, 0.0000000000000000000, 1.000000000000000000 ) ) ;
#172 = ADVANCED_BREP_SHAPE_REPRESENTATION ( '200750', ( #186, #280, #240 ), #36 ) ;
#173 = ORIENTED_EDGE ( 'NONE', *, *, #278, .T. ) ;
#174 = PERSON_AND_ORGANIZATION_ROLE ( 'creator' ) ;
#175 = AXIS2_PLACEMENT_3D ( 'NONE', #265, #117, #111 ) ;
#176 = EDGE_LOOP ( 'NONE', ( #206 ) ) ;
#177 = VERTEX_POINT ( 'NONE', #150 ) ;
#178 = CARTESIAN_POINT ( 'NONE',  ( 2.444036937190193349E-14, -8.572527594031473190E-16, 7.000000000000000000 ) ) ;
#179 = COORDINATED_UNIVERSAL_TIME_OFFSET ( 1, 0, .AHEAD. ) ;
#180 = DIRECTION ( 'NONE',  ( -3.491481338843133355E-15, 1.224646799147353207E-16, -1.000000000000000000 ) ) ;
#181 = CLOSED_SHELL ( 'NONE', ( #14, #20, #84, #80, #200, #89, #62 ) ) ;
#182 = DIRECTION ( 'NONE',  ( -3.491481338843133355E-15, 1.224646799147353207E-16, -1.000000000000000000 ) ) ;
#183 = CC_DESIGN_DATE_AND_TIME_ASSIGNMENT ( #157, #31, ( #71 ) ) ;
#184 = PRODUCT ( '200750', '200750', '', ( #149 ) ) ;
#185 = VERTEX_POINT ( 'NONE', #15 ) ;
#186 = MANIFOLD_SOLID_BREP ( 'Corps-Déplacer/Copier1[1]', #181 ) ;
#187 = PERSON_AND_ORGANIZATION ( #17, #227 ) ;
#188 = VERTEX_POINT ( 'NONE', #251 ) ;
#189 = CALENDAR_DATE ( 2021, 1, 12 ) ;
#190 =( LENGTH_UNIT ( ) NAMED_UNIT ( * ) SI_UNIT ( .MILLI., .METRE. ) );
#191 = DESIGN_CONTEXT ( 'detailed design', #161, 'design' ) ;
#192 = FACE_OUTER_BOUND ( 'NONE', #8, .T. ) ;
#193 = EDGE_LOOP ( 'NONE', ( #143 ) ) ;
#194 = EDGE_CURVE ( 'NONE', #177, #177, #222, .T. ) ;
#195 = LOCAL_TIME ( 8, 27, 19.00000000000000000, #3 ) ;
#196 = FACE_OUTER_BOUND ( 'NONE', #176, .T. ) ;
#197 = DIRECTION ( 'NONE',  ( 1.000000000000000000, 0.0000000000000000000, 0.0000000000000000000 ) ) ;
#198 = CIRCLE ( 'NONE', #7, 1.200000000000003286 ) ;
#199 = LOCAL_TIME ( 8, 27, 19.00000000000000000, #108 ) ;
#200 = ADVANCED_FACE ( 'NONE', ( #212, #30 ), #91, .T. ) ;
#201 = DIRECTION ( 'NONE',  ( -3.491481338843133355E-15, 1.224646799147353207E-16, -1.000000000000000000 ) ) ;
#202 = DIRECTION ( 'NONE',  ( 0.0000000000000000000, 1.000000000000000000, 0.0000000000000000000 ) ) ;
#203 = APPROVAL_ROLE ( '' ) ;
#204 = ORIENTED_EDGE ( 'NONE', *, *, #253, .F. ) ;
#205 = DATE_AND_TIME ( #264, #199 ) ;
#206 = ORIENTED_EDGE ( 'NONE', *, *, #142, .F. ) ;
#207 = DIRECTION ( 'NONE',  ( -3.491481338843133355E-15, 1.224646799147353207E-16, -1.000000000000000000 ) ) ;
#208 = DIRECTION ( 'NONE',  ( -4.275831445896958607E-31, -1.000000000000000000, -1.224646799147353207E-16 ) ) ;
#209 = FACE_OUTER_BOUND ( 'NONE', #102, .T. ) ;
#210 = APPROVAL ( #261, 'UNSPECIFIED' ) ;
#211 = VERTEX_POINT ( 'NONE', #77 ) ;
#212 = FACE_OUTER_BOUND ( 'NONE', #279, .T. ) ;
#213 = COORDINATED_UNIVERSAL_TIME_OFFSET ( 1, 0, .AHEAD. ) ;
#214 = AXIS2_PLACEMENT_3D ( 'NONE', #92, #29, #273 ) ;
#215 = CARTESIAN_POINT ( 'NONE',  ( 4.861469726623851142E-14, -1.705174039920350016E-15, 13.92380269239717450 ) ) ;
#216 = ORIENTED_EDGE ( 'NONE', *, *, #194, .T. ) ;
#217 = AXIS2_PLACEMENT_3D ( 'NONE', #237, #218, #103 ) ;
#218 = DIRECTION ( 'NONE',  ( 3.491481338843133355E-15, -1.224646799147353207E-16, 1.000000000000000000 ) ) ;
#219 = DATE_TIME_ROLE ( 'creation_date' ) ;
#220 = PRODUCT_DEFINITION ( 'UNKNOWN', '', #258, #191 ) ;
#221 = ORIENTED_EDGE ( 'NONE', *, *, #4, .F. ) ;
#222 = CIRCLE ( 'NONE', #245, 0.3099999999999991096 ) ;
#223 = APPROVAL_DATE_TIME ( #128, #166 ) ;
#224 = CYLINDRICAL_SURFACE ( 'NONE', #115, 0.3099999999999997202 ) ;
#225 = VERTEX_POINT ( 'NONE', #51 ) ;
#226 = AXIS2_PLACEMENT_3D ( 'NONE', #56, #68, #110 ) ;
#227 = ORGANIZATION ( 'UNSPECIFIED', 'UNSPECIFIED', '' ) ;
#228 = PLANE ( 'NONE',  #269 ) ;
#229 = FACE_BOUND ( 'NONE', #281, .T. ) ;
#230 = CARTESIAN_POINT ( 'NONE',  ( 2.565294811559829736E-14, -8.997842963946611302E-16, 7.347296355333847728 ) ) ;
#231 = FACE_OUTER_BOUND ( 'NONE', #27, .T. ) ;
#232 = ADVANCED_FACE ( 'NONE', ( #156, #75 ), #33, .T. ) ;
#233 = AXIS2_PLACEMENT_3D ( 'NONE', #23, #86, #42 ) ;
#234 = CC_DESIGN_SECURITY_CLASSIFICATION ( #71, ( #258 ) ) ;
#235 = EDGE_LOOP ( 'NONE', ( #40 ) ) ;
#236 = CC_DESIGN_PERSON_AND_ORGANIZATION_ASSIGNMENT ( #120, #73, ( #71 ) ) ;
#237 = CARTESIAN_POINT ( 'NONE',  ( 3.491481338843132369E-16, -1.224646799147352807E-17, 0.09999999999999996392 ) ) ;
#238 = DIRECTION ( 'NONE',  ( 0.0000000000000000000, 1.000000000000000000, 0.0000000000000000000 ) ) ;
#239 = AXIS2_PLACEMENT_3D ( 'NONE', #106, #262, #202 ) ;
#240 = AXIS2_PLACEMENT_3D ( 'NONE', #65, #171, #197 ) ;
#241 = DIRECTION ( 'NONE',  ( 3.491481338843133355E-15, -1.224646799147353207E-16, 1.000000000000000000 ) ) ;
#242 = DIRECTION ( 'NONE',  ( 0.0000000000000000000, 1.000000000000000000, 0.0000000000000000000 ) ) ;
#243 = CARTESIAN_POINT ( 'NONE',  ( 0.0000000000000000000, 0.0000000000000000000, 0.0000000000000000000 ) ) ;
#244 = CARTESIAN_POINT ( 'NONE',  ( 2.444036937190193349E-14, 0.3099999999999990541, 7.000000000000000000 ) ) ;
#245 = AXIS2_PLACEMENT_3D ( 'NONE', #55, #48, #135 ) ;
#246 = ADVANCED_FACE ( 'NONE', ( #266 ), #113, .F. ) ;
#247 = COORDINATED_UNIVERSAL_TIME_OFFSET ( 1, 0, .AHEAD. ) ;
#248 = CARTESIAN_POINT ( 'NONE',  ( 1.326762908760390423E-13, -4.653657836759941941E-15, 38.00000000000000000 ) ) ;
#249 = APPROVAL_ROLE ( '' ) ;
#250 = VERTEX_POINT ( 'NONE', #244 ) ;
#251 = CARTESIAN_POINT ( 'NONE',  ( 2.565294811559829736E-14, 0.3403844939755796273, 7.347296355333847728 ) ) ;
#252 = EDGE_LOOP ( 'NONE', ( #168 ) ) ;
#253 = EDGE_CURVE ( 'NONE', #225, #225, #26, .T. ) ;
#254 = ORIENTED_EDGE ( 'NONE', *, *, #112, .F. ) ;
#255 = EDGE_LOOP ( 'NONE', ( #148 ) ) ;
#256 = CC_DESIGN_PERSON_AND_ORGANIZATION_ASSIGNMENT ( #61, #174, ( #220 ) ) ;
#257 = EDGE_LOOP ( 'NONE', ( #107 ) ) ;
#258 = PRODUCT_DEFINITION_FORMATION_WITH_SPECIFIED_SOURCE ( 'ANY', '', #184, .NOT_KNOWN. ) ;
#259 = CC_DESIGN_APPROVAL ( #166, ( #220 ) ) ;
#260 = EDGE_LOOP ( 'NONE', ( #167 ) ) ;
#261 = APPROVAL_STATUS ( 'not_yet_approved' ) ;
#262 = DIRECTION ( 'NONE',  ( -3.491481338843133355E-15, 1.224646799147353207E-16, -1.000000000000000000 ) ) ;
#263 = CALENDAR_DATE ( 2021, 1, 12 ) ;
#264 = CALENDAR_DATE ( 2021, 1, 12 ) ;
#265 = CARTESIAN_POINT ( 'NONE',  ( -5.393212522991246597E-32, 1.891684306006080199E-33, -1.544677459103428446E-17 ) ) ;
#266 = FACE_OUTER_BOUND ( 'NONE', #21, .T. ) ;
#267 = SECURITY_CLASSIFICATION_LEVEL ( 'unclassified' ) ;
#268 = EDGE_CURVE ( 'NONE', #188, #188, #90, .T. ) ;
#269 = AXIS2_PLACEMENT_3D ( 'NONE', #119, #12, #208 ) ;
#270 = CARTESIAN_POINT ( 'NONE',  ( 0.0000000000000000000, 0.0000000000000000000, 0.0000000000000000000 ) ) ;
#271 = CARTESIAN_POINT ( 'NONE',  ( -1.078642504598249319E-31, 3.783368612012160398E-33, -3.089354918206856892E-17 ) ) ;
#272 = CC_DESIGN_PERSON_AND_ORGANIZATION_ASSIGNMENT ( #52, #34, ( #258 ) ) ;
#273 = DIRECTION ( 'NONE',  ( 0.0000000000000000000, 1.000000000000000000, 0.0000000000000000000 ) ) ;
#274 = VERTEX_POINT ( 'NONE', #79 ) ;
#275 = AXIS2_PLACEMENT_3D ( 'NONE', #134, #180, #97 ) ;
#276 = DATE_AND_TIME ( #114, #282 ) ;
#277 = CIRCLE ( 'NONE', #109, 0.3099999999999995537 ) ;
#278 = EDGE_CURVE ( 'NONE', #274, #274, #101, .T. ) ;
#279 = EDGE_LOOP ( 'NONE', ( #204 ) ) ;
#280 = MANIFOLD_SOLID_BREP ( 'Corps-Déplacer/Copier1[2]', #83 ) ;
#281 = EDGE_LOOP ( 'NONE', ( #127 ) ) ;
#282 = LOCAL_TIME ( 8, 27, 19.00000000000000000, #179 ) ;
#283 = ORIENTED_EDGE ( 'NONE', *, *, #278, .F. ) ;
ENDSEC;
END-ISO-10303-21;
