ISO-10303-21;
HEADER;
FILE_DESCRIPTION (( 'STEP AP203' ),
    '1' );
FILE_NAME ('200749.step',
    '2021-12-01T07:27:18',
    ( '' ),
    ( '' ),
    'SwSTEP 2.0',
    'SolidWorks 2019',
    '' );
FILE_SCHEMA (( 'CONFIG_CONTROL_DESIGN' ));
ENDSEC;

DATA;
#1 = DIRECTION ( 'NONE',  ( -3.491481338843133355E-15, 1.224646799147353207E-16, -1.000000000000000000 ) ) ;
#2 = FACE_OUTER_BOUND ( 'NONE', #206, .T. ) ;
#3 = SECURITY_CLASSIFICATION ( '', '', #258 ) ;
#4 = ORIENTED_EDGE ( 'NONE', *, *, #171, .F. ) ;
#5 = CARTESIAN_POINT ( 'NONE',  ( 2.565294811559829420E-14, -8.997842963946611302E-16, 7.347296355333846840 ) ) ;
#6 = LOCAL_TIME ( 8, 27, 18.00000000000000000, #166 ) ;
#7 = CIRCLE ( 'NONE', #201, 0.3500000000000000333 ) ;
#8 = DIRECTION ( 'NONE',  ( 0.0000000000000000000, 1.000000000000000000, 0.0000000000000000000 ) ) ;
#9 = EDGE_CURVE ( 'NONE', #156, #156, #49, .T. ) ;
#10 = AXIS2_PLACEMENT_3D ( 'NONE', #196, #192, #283 ) ;
#11 = VERTEX_POINT ( 'NONE', #93 ) ;
#12 = EDGE_LOOP ( 'NONE', ( #54 ) ) ;
#13 = FACE_OUTER_BOUND ( 'NONE', #71, .T. ) ;
#14 = DIRECTION ( 'NONE',  ( 0.0000000000000000000, 0.0000000000000000000, 1.000000000000000000 ) ) ;
#15 = DESIGN_CONTEXT ( 'detailed design', #232, 'design' ) ;
#16 = PERSON_AND_ORGANIZATION ( #61, #65 ) ;
#17 = ORIENTED_EDGE ( 'NONE', *, *, #191, .T. ) ;
#18 = APPROVAL_STATUS ( 'not_yet_approved' ) ;
#19 = CLOSED_SHELL ( 'NONE', ( #26, #50, #268, #97, #77, #243, #239 ) ) ;
#20 = APPROVAL_DATE_TIME ( #103, #68 ) ;
#21 = ORIENTED_EDGE ( 'NONE', *, *, #9, .F. ) ;
#22 = DIRECTION ( 'NONE',  ( 4.275831445896958607E-31, 1.000000000000000000, 1.224646799147353207E-16 ) ) ;
#23 = CARTESIAN_POINT ( 'NONE',  ( 1.396592535537253342E-14, 2.624579619658241235E-33, 4.000000000000000000 ) ) ;
#24 = ADVANCED_BREP_SHAPE_REPRESENTATION ( '200749', ( #262, #160, #175 ), #157 ) ;
#25 = CONICAL_SURFACE ( 'NONE', #248, 1.200000000000003286, 0.7853981633974453924 ) ;
#26 = ADVANCED_FACE ( 'NONE', ( #2 ), #130, .F. ) ;
#27 = CC_DESIGN_APPROVAL ( #111, ( #265 ) ) ;
#28 = CARTESIAN_POINT ( 'NONE',  ( 1.396592535537253342E-14, -4.898587196589412829E-16, 4.000000000000000000 ) ) ;
#29 = DIRECTION ( 'NONE',  ( 0.0000000000000000000, 1.000000000000000000, 0.0000000000000000000 ) ) ;
#30 = ORIENTED_EDGE ( 'NONE', *, *, #171, .T. ) ;
#31 = APPROVAL ( #261, 'UNSPECIFIED' ) ;
#32 = FACE_BOUND ( 'NONE', #193, .T. ) ;
#33 = ORIENTED_EDGE ( 'NONE', *, *, #9, .T. ) ;
#34 = DIRECTION ( 'NONE',  ( -3.491481338843133355E-15, 1.224646799147353207E-16, -1.000000000000000000 ) ) ;
#35 = VERTEX_POINT ( 'NONE', #185 ) ;
#36 = CALENDAR_DATE ( 2021, 1, 12 ) ;
#37 = DIRECTION ( 'NONE',  ( 3.491481338843133355E-15, -1.224646799147353207E-16, 1.000000000000000000 ) ) ;
#38 = DIRECTION ( 'NONE',  ( 0.0000000000000000000, -1.000000000000000000, 0.0000000000000000000 ) ) ;
#39 = LOCAL_TIME ( 8, 27, 18.00000000000000000, #162 ) ;
#40 = PRODUCT_DEFINITION_FORMATION_WITH_SPECIFIED_SOURCE ( 'ANY', '', #199, .NOT_KNOWN. ) ;
#41 = CIRCLE ( 'NONE', #89, 0.2922649730810373825 ) ;
#42 = COORDINATED_UNIVERSAL_TIME_OFFSET ( 1, 0, .AHEAD. ) ;
#43 = CARTESIAN_POINT ( 'NONE',  ( -3.033078492425470116E-32, 1.063860724669454053E-33, -8.687082066520366217E-18 ) ) ;
#44 = DIRECTION ( 'NONE',  ( 3.491481338843133355E-15, -1.224646799147353207E-16, 1.000000000000000000 ) ) ;
#45 = CARTESIAN_POINT ( 'NONE',  ( 0.0000000000000000000, 0.0000000000000000000, 0.0000000000000000000 ) ) ;
#46 = AXIS2_PLACEMENT_3D ( 'NONE', #281, #62, #168 ) ;
#47 = CC_DESIGN_PERSON_AND_ORGANIZATION_ASSIGNMENT ( #216, #189, ( #40 ) ) ;
#48 = DIRECTION ( 'NONE',  ( -3.491481338843133355E-15, 1.224646799147353207E-16, -1.000000000000000000 ) ) ;
#49 = CIRCLE ( 'NONE', #82, 1.500000000000003331 ) ;
#50 = ADVANCED_FACE ( 'NONE', ( #110, #241 ), #58, .T. ) ;
#51 = CONICAL_SURFACE ( 'NONE', #133, 1.499999999999997113, 0.1745329251994261477 ) ;
#52 = VERTEX_POINT ( 'NONE', #123 ) ;
#53 = PERSON_AND_ORGANIZATION_ROLE ( 'design_owner' ) ;
#54 = ORIENTED_EDGE ( 'NONE', *, *, #115, .F. ) ;
#55 = LOCAL_TIME ( 8, 27, 18.00000000000000000, #42 ) ;
#56 = CARTESIAN_POINT ( 'NONE',  ( 2.565294811559829420E-14, 0.3803844939755796073, 7.347296355333846840 ) ) ;
#57 = CALENDAR_DATE ( 2021, 1, 12 ) ;
#58 = CYLINDRICAL_SURFACE ( 'NONE', #222, 0.3499999999999998113 ) ;
#59 = CALENDAR_DATE ( 2021, 1, 12 ) ;
#60 = FACE_OUTER_BOUND ( 'NONE', #198, .T. ) ;
#61 = PERSON ( 'UNSPECIFIED', 'UNSPECIFIED', 'UNSPECIFIED', ('UNSPECIFIED'), ('UNSPECIFIED'), ('UNSPECIFIED') ) ;
#62 = DIRECTION ( 'NONE',  ( 3.491481338843133355E-15, -1.224646799147353207E-16, 1.000000000000000000 ) ) ;
#63 = PERSON_AND_ORGANIZATION ( #61, #65 ) ;
#64 = DIRECTION ( 'NONE',  ( 0.0000000000000000000, 1.000000000000000000, 0.0000000000000000000 ) ) ;
#65 = ORGANIZATION ( 'UNSPECIFIED', 'UNSPECIFIED', '' ) ;
#66 = APPROVAL_PERSON_ORGANIZATION ( #63, #31, #131 ) ;
#67 = CARTESIAN_POINT ( 'NONE',  ( 1.326762908760390423E-13, 8.998558695971103225E-33, 38.00000000000000000 ) ) ;
#68 = APPROVAL ( #147, 'UNSPECIFIED' ) ;
#69 = FACE_OUTER_BOUND ( 'NONE', #184, .T. ) ;
#70 = AXIS2_PLACEMENT_3D ( 'NONE', #119, #153, #173 ) ;
#71 = EDGE_LOOP ( 'NONE', ( #227 ) ) ;
#72 = CARTESIAN_POINT ( 'NONE',  ( 1.316288464743861212E-13, 1.499999999999998668, 37.69999999999999574 ) ) ;
#73 = DIRECTION ( 'NONE',  ( -3.491481338843133355E-15, 1.224646799147353207E-16, -1.000000000000000000 ) ) ;
#74 = EDGE_LOOP ( 'NONE', ( #275 ) ) ;
#75 = DIRECTION ( 'NONE',  ( -3.491481338843133355E-15, 1.224646799147353207E-16, -1.000000000000000000 ) ) ;
#76 = ORIENTED_EDGE ( 'NONE', *, *, #191, .F. ) ;
#77 = ADVANCED_FACE ( 'NONE', ( #80, #195 ), #219, .T. ) ;
#78 = CARTESIAN_POINT ( 'NONE',  ( 0.0000000000000000000, 0.0000000000000000000, 0.0000000000000000000 ) ) ;
#79 = AXIS2_PLACEMENT_3D ( 'NONE', #207, #34, #158 ) ;
#80 = FACE_OUTER_BOUND ( 'NONE', #251, .T. ) ;
#81 = CC_DESIGN_PERSON_AND_ORGANIZATION_ASSIGNMENT ( #282, #127, ( #40 ) ) ;
#82 = AXIS2_PLACEMENT_3D ( 'NONE', #240, #170, #64 ) ;
#83 = ORIENTED_EDGE ( 'NONE', *, *, #255, .T. ) ;
#84 = FACE_OUTER_BOUND ( 'NONE', #272, .T. ) ;
#85 = CC_DESIGN_PERSON_AND_ORGANIZATION_ASSIGNMENT ( #16, #53, ( #199 ) ) ;
#86 = CIRCLE ( 'NONE', #124, 0.3499999999999996447 ) ;
#87 = CARTESIAN_POINT ( 'NONE',  ( 2.444036937190193349E-14, -8.572527594031473190E-16, 7.000000000000000000 ) ) ;
#88 = CIRCLE ( 'NONE', #250, 0.3803844939755805510 ) ;
#89 = AXIS2_PLACEMENT_3D ( 'NONE', #43, #236, #112 ) ;
#90 = ADVANCED_FACE ( 'NONE', ( #104, #188 ), #269, .T. ) ;
#91 = CARTESIAN_POINT ( 'NONE',  ( 1.326762908760390423E-13, -4.653657836759941941E-15, 38.00000000000000000 ) ) ;
#92 = CC_DESIGN_APPROVAL ( #68, ( #40 ) ) ;
#93 = CARTESIAN_POINT ( 'NONE',  ( 9.463679131915806782E-32, 0.2922649730810373825, 2.710505431213761085E-17 ) ) ;
#94 = ORIENTED_EDGE ( 'NONE', *, *, #150, .T. ) ;
#95 = PLANE ( 'NONE',  #242 ) ;
#96 = DIRECTION ( 'NONE',  ( 0.0000000000000000000, 1.000000000000000000, 0.0000000000000000000 ) ) ;
#97 = ADVANCED_FACE ( 'NONE', ( #143, #167 ), #51, .T. ) ;
#98 = LOCAL_TIME ( 8, 27, 18.00000000000000000, #163 ) ;
#99 = CARTESIAN_POINT ( 'NONE',  ( 1.326762908760390423E-13, 1.199999999999998845, 38.00000000000000000 ) ) ;
#100 = ORIENTED_EDGE ( 'NONE', *, *, #118, .T. ) ;
#101 = CARTESIAN_POINT ( 'NONE',  ( 1.326762908760390423E-13, -4.653657836759941941E-15, 38.00000000000000000 ) ) ;
#102 = ADVANCED_FACE ( 'NONE', ( #128 ), #215, .T. ) ;
#103 = DATE_AND_TIME ( #144, #55 ) ;
#104 = FACE_BOUND ( 'NONE', #12, .T. ) ;
#105 = DATE_TIME_ROLE ( 'creation_date' ) ;
#106 = ORIENTED_EDGE ( 'NONE', *, *, #255, .F. ) ;
#107 = APPROVAL_PERSON_ORGANIZATION ( #113, #68, #231 ) ;
#108 = DIRECTION ( 'NONE',  ( -4.275831445896958607E-31, -1.000000000000000000, -1.224646799147353207E-16 ) ) ;
#109 = PERSON_AND_ORGANIZATION_ROLE ( 'classification_officer' ) ;
#110 = FACE_OUTER_BOUND ( 'NONE', #225, .T. ) ;
#111 = APPROVAL ( #18, 'UNSPECIFIED' ) ;
#112 = DIRECTION ( 'NONE',  ( 4.275831445896958607E-31, 1.000000000000000000, 1.224646799147353207E-16 ) ) ;
#113 = PERSON_AND_ORGANIZATION ( #61, #65 ) ;
#114 = TOROIDAL_SURFACE ( 'NONE', #200, 2.350000000000000089, 2.000000000000000888 ) ;
#115 = EDGE_CURVE ( 'NONE', #11, #11, #41, .T. ) ;
#116 = DIRECTION ( 'NONE',  ( 0.0000000000000000000, 1.000000000000000000, 0.0000000000000000000 ) ) ;
#117 = AXIS2_PLACEMENT_3D ( 'NONE', #91, #174, #224 ) ;
#118 = EDGE_CURVE ( 'NONE', #52, #52, #141, .T. ) ;
#119 = CARTESIAN_POINT ( 'NONE',  ( 4.782265028061785570E-14, -1.677392771410518917E-15, 13.69695141961245710 ) ) ;
#120 = LOCAL_TIME ( 8, 27, 18.00000000000000000, #254 ) ;
#121 = ADVANCED_FACE ( 'NONE', ( #260, #60 ), #145, .T. ) ;
#122 =( NAMED_UNIT ( * ) PLANE_ANGLE_UNIT ( ) SI_UNIT ( $, .RADIAN. ) );
#123 = CARTESIAN_POINT ( 'NONE',  ( 3.491481338843134341E-16, 0.3499999999999991451, 0.1000000000000000194 ) ) ;
#124 = AXIS2_PLACEMENT_3D ( 'NONE', #28, #48, #116 ) ;
#125 = EDGE_LOOP ( 'NONE', ( #30 ) ) ;
#126 = APPLICATION_PROTOCOL_DEFINITION ( 'international standard', 'config_control_design', 1994, #220 ) ;
#127 = PERSON_AND_ORGANIZATION_ROLE ( 'design_supplier' ) ;
#128 = FACE_OUTER_BOUND ( 'NONE', #280, .T. ) ;
#129 = CIRCLE ( 'NONE', #205, 0.3499999999999996447 ) ;
#130 = PLANE ( 'NONE',  #245 ) ;
#131 = APPROVAL_ROLE ( '' ) ;
#132 = DIRECTION ( 'NONE',  ( -4.275831445896958607E-31, -1.000000000000000000, -1.224646799147353207E-16 ) ) ;
#133 = AXIS2_PLACEMENT_3D ( 'NONE', #165, #235, #38 ) ;
#134 = ADVANCED_FACE ( 'NONE', ( #13 ), #95, .F. ) ;
#135 = PLANE ( 'NONE',  #152 ) ;
#136 = CC_DESIGN_SECURITY_CLASSIFICATION ( #3, ( #40 ) ) ;
#137 = DIRECTION ( 'NONE',  ( -3.491481338843133355E-15, 1.224646799147353207E-16, -1.000000000000000000 ) ) ;
#138 = DIRECTION ( 'NONE',  ( 4.397924753498151261E-31, 1.000000000000000000, 1.224646799147353207E-16 ) ) ;
#139 = PERSON_AND_ORGANIZATION ( #61, #65 ) ;
#140 = EDGE_LOOP ( 'NONE', ( #21 ) ) ;
#141 = CIRCLE ( 'NONE', #10, 0.3499999999999991451 ) ;
#142 = PERSON_AND_ORGANIZATION ( #61, #65 ) ;
#143 = FACE_BOUND ( 'NONE', #278, .T. ) ;
#144 = CALENDAR_DATE ( 2021, 1, 12 ) ;
#145 = CYLINDRICAL_SURFACE ( 'NONE', #79, 0.3499999999999994227 ) ;
#146 = CC_DESIGN_DATE_AND_TIME_ASSIGNMENT ( #263, #105, ( #265 ) ) ;
#147 = APPROVAL_STATUS ( 'not_yet_approved' ) ;
#148 = DIRECTION ( 'NONE',  ( 3.491481338843133355E-15, -1.224646799147353207E-16, 1.000000000000000000 ) ) ;
#149 = CARTESIAN_POINT ( 'NONE',  ( 1.396592535537253342E-14, 2.624579619658241235E-33, 4.000000000000000000 ) ) ;
#150 = EDGE_CURVE ( 'NONE', #230, #230, #88, .T. ) ;
#151 = DIRECTION ( 'NONE',  ( 4.275831445896958607E-31, 1.000000000000000000, 1.224646799147353207E-16 ) ) ;
#152 = AXIS2_PLACEMENT_3D ( 'NONE', #67, #172, #151 ) ;
#153 = DIRECTION ( 'NONE',  ( -3.491481338843133355E-15, 1.224646799147353207E-16, -1.000000000000000000 ) ) ;
#154 = VERTEX_POINT ( 'NONE', #246 ) ;
#155 = CC_DESIGN_PERSON_AND_ORGANIZATION_ASSIGNMENT ( #142, #109, ( #3 ) ) ;
#156 = VERTEX_POINT ( 'NONE', #72 ) ;
#157 =( GEOMETRIC_REPRESENTATION_CONTEXT ( 3 ) GLOBAL_UNCERTAINTY_ASSIGNED_CONTEXT ( ( #176 ) ) GLOBAL_UNIT_ASSIGNED_CONTEXT ( ( #226, #122, #159 ) ) REPRESENTATION_CONTEXT ( 'NONE', 'WORKASPACE' ) );
#158 = DIRECTION ( 'NONE',  ( 4.275831445896957731E-31, 1.000000000000000000, 1.224646799147353207E-16 ) ) ;
#159 =( NAMED_UNIT ( * ) SI_UNIT ( $, .STERADIAN. ) SOLID_ANGLE_UNIT ( ) );
#160 = MANIFOLD_SOLID_BREP ( 'Corps-Déplacer/Copier1[2]', #273 ) ;
#161 = PRODUCT_RELATED_PRODUCT_CATEGORY ( 'detail', '', ( #199 ) ) ;
#162 = COORDINATED_UNIVERSAL_TIME_OFFSET ( 1, 0, .AHEAD. ) ;
#163 = COORDINATED_UNIVERSAL_TIME_OFFSET ( 1, 0, .AHEAD. ) ;
#164 = ORIENTED_EDGE ( 'NONE', *, *, #183, .T. ) ;
#165 = CARTESIAN_POINT ( 'NONE',  ( 4.782265028061785570E-14, -1.677392771410518917E-15, 13.69695141961245710 ) ) ;
#166 = COORDINATED_UNIVERSAL_TIME_OFFSET ( 1, 0, .AHEAD. ) ;
#167 = FACE_OUTER_BOUND ( 'NONE', #274, .T. ) ;
#168 = DIRECTION ( 'NONE',  ( -4.126992737972658391E-31, -1.000000000000000000, -1.161645184805900460E-16 ) ) ;
#169 = CIRCLE ( 'NONE', #70, 1.499999999999997113 ) ;
#170 = DIRECTION ( 'NONE',  ( -3.491481338843133355E-15, 1.224646799147353207E-16, -1.000000000000000000 ) ) ;
#171 = EDGE_CURVE ( 'NONE', #35, #35, #7, .T. ) ;
#172 = DIRECTION ( 'NONE',  ( -3.491481338843133355E-15, 1.224646799147353207E-16, -1.000000000000000000 ) ) ;
#173 = DIRECTION ( 'NONE',  ( 0.0000000000000000000, 1.000000000000000000, 0.0000000000000000000 ) ) ;
#174 = DIRECTION ( 'NONE',  ( -3.491481338843133355E-15, 1.224646799147353207E-16, -1.000000000000000000 ) ) ;
#175 = AXIS2_PLACEMENT_3D ( 'NONE', #252, #14, #228 ) ;
#176 = UNCERTAINTY_MEASURE_WITH_UNIT (LENGTH_MEASURE( 1.000000000000000082E-05 ), #226, 'distance_accuracy_value', 'NONE');
#177 = CARTESIAN_POINT ( 'NONE',  ( 1.396592535537253342E-14, -4.898587196589412829E-16, 4.000000000000000000 ) ) ;
#178 = EDGE_LOOP ( 'NONE', ( #33 ) ) ;
#179 = CARTESIAN_POINT ( 'NONE',  ( -1.516539246212735058E-32, 5.319303623347270263E-34, -4.343541033260183108E-18 ) ) ;
#180 = VERTEX_POINT ( 'NONE', #249 ) ;
#181 = EDGE_LOOP ( 'NONE', ( #100 ) ) ;
#182 = VERTEX_POINT ( 'NONE', #279 ) ;
#183 = EDGE_CURVE ( 'NONE', #270, #270, #237, .T. ) ;
#184 = EDGE_LOOP ( 'NONE', ( #94 ) ) ;
#185 = CARTESIAN_POINT ( 'NONE',  ( 2.444036937190193349E-14, 0.3499999999999992006, 7.000000000000000000 ) ) ;
#186 = DATE_AND_TIME ( #57, #6 ) ;
#187 = ORIENTED_EDGE ( 'NONE', *, *, #183, .F. ) ;
#188 = FACE_OUTER_BOUND ( 'NONE', #181, .T. ) ;
#189 = PERSON_AND_ORGANIZATION_ROLE ( 'creator' ) ;
#190 = AXIS2_PLACEMENT_3D ( 'NONE', #78, #1, #259 ) ;
#191 = EDGE_CURVE ( 'NONE', #154, #154, #86, .T. ) ;
#192 = DIRECTION ( 'NONE',  ( -3.491481338843133355E-15, 1.224646799147353207E-16, -1.000000000000000000 ) ) ;
#193 = EDGE_LOOP ( 'NONE', ( #164 ) ) ;
#194 = SHAPE_DEFINITION_REPRESENTATION ( #223, #24 ) ;
#195 = FACE_OUTER_BOUND ( 'NONE', #178, .T. ) ;
#196 = CARTESIAN_POINT ( 'NONE',  ( 3.491481338843132862E-16, -1.224646799147352961E-17, 0.09999999999999997780 ) ) ;
#197 = DATE_AND_TIME ( #36, #120 ) ;
#198 = EDGE_LOOP ( 'NONE', ( #83 ) ) ;
#199 = PRODUCT ( '200749', '200749', '', ( #256 ) ) ;
#200 = AXIS2_PLACEMENT_3D ( 'NONE', #208, #137, #138 ) ;
#201 = AXIS2_PLACEMENT_3D ( 'NONE', #87, #244, #203 ) ;
#202 = EDGE_CURVE ( 'NONE', #180, #180, #169, .T. ) ;
#203 = DIRECTION ( 'NONE',  ( 0.0000000000000000000, 1.000000000000000000, 0.0000000000000000000 ) ) ;
#204 = DIRECTION ( 'NONE',  ( -4.275831445896958607E-31, -1.000000000000000000, -1.224646799147353207E-16 ) ) ;
#205 = AXIS2_PLACEMENT_3D ( 'NONE', #177, #73, #96 ) ;
#206 = EDGE_LOOP ( 'NONE', ( #17 ) ) ;
#207 = CARTESIAN_POINT ( 'NONE',  ( 0.0000000000000000000, 0.0000000000000000000, 0.0000000000000000000 ) ) ;
#208 = CARTESIAN_POINT ( 'NONE',  ( 2.444036937190193349E-14, -8.673617379884035472E-16, 7.000000000000000000 ) ) ;
#209 = ORIENTED_EDGE ( 'NONE', *, *, #202, .T. ) ;
#210 = APPLICATION_PROTOCOL_DEFINITION ( 'international standard', 'config_control_design', 1994, #232 ) ;
#211 = PERSON_AND_ORGANIZATION_ROLE ( 'creator' ) ;
#212 = DIRECTION ( 'NONE',  ( -3.491481338843133355E-15, 1.224646799147353207E-16, -1.000000000000000000 ) ) ;
#213 = CC_DESIGN_PERSON_AND_ORGANIZATION_ASSIGNMENT ( #139, #211, ( #265 ) ) ;
#214 = APPROVAL_DATE_TIME ( #197, #31 ) ;
#215 = PLANE ( 'NONE',  #217 ) ;
#216 = PERSON_AND_ORGANIZATION ( #61, #65 ) ;
#217 = AXIS2_PLACEMENT_3D ( 'NONE', #23, #148, #108 ) ;
#218 = APPROVAL_DATE_TIME ( #238, #111 ) ;
#219 = CYLINDRICAL_SURFACE ( 'NONE', #190, 1.500000000000000222 ) ;
#220 = APPLICATION_CONTEXT ( 'configuration controlled 3d designs of mechanical parts and assemblies' ) ;
#221 = CC_DESIGN_APPROVAL ( #31, ( #3 ) ) ;
#222 = AXIS2_PLACEMENT_3D ( 'NONE', #45, #212, #22 ) ;
#223 = PRODUCT_DEFINITION_SHAPE ( 'NONE', 'NONE',  #265 ) ;
#224 = DIRECTION ( 'NONE',  ( 0.0000000000000000000, 1.000000000000000000, 0.0000000000000000000 ) ) ;
#225 = EDGE_LOOP ( 'NONE', ( #76 ) ) ;
#226 =( LENGTH_UNIT ( ) NAMED_UNIT ( * ) SI_UNIT ( .MILLI., .METRE. ) );
#227 = ORIENTED_EDGE ( 'NONE', *, *, #115, .T. ) ;
#228 = DIRECTION ( 'NONE',  ( 1.000000000000000000, 0.0000000000000000000, 0.0000000000000000000 ) ) ;
#229 = ORIENTED_EDGE ( 'NONE', *, *, #150, .F. ) ;
#230 = VERTEX_POINT ( 'NONE', #56 ) ;
#231 = APPROVAL_ROLE ( '' ) ;
#232 = APPLICATION_CONTEXT ( 'configuration controlled 3d designs of mechanical parts and assemblies' ) ;
#233 = PERSON_AND_ORGANIZATION ( #61, #65 ) ;
#234 = DATE_TIME_ROLE ( 'classification_date' ) ;
#235 = DIRECTION ( 'NONE',  ( 3.491481338843133355E-15, -1.224646799147353207E-16, 1.000000000000000000 ) ) ;
#236 = DIRECTION ( 'NONE',  ( -3.491481338843133355E-15, 1.224646799147353207E-16, -1.000000000000000000 ) ) ;
#237 = CIRCLE ( 'NONE', #117, 1.200000000000003286 ) ;
#238 = DATE_AND_TIME ( #253, #39 ) ;
#239 = ADVANCED_FACE ( 'NONE', ( #84 ), #135, .F. ) ;
#240 = CARTESIAN_POINT ( 'NONE',  ( 1.316288464743861212E-13, -4.616918432785521081E-15, 37.69999999999999574 ) ) ;
#241 = FACE_OUTER_BOUND ( 'NONE', #125, .T. ) ;
#242 = AXIS2_PLACEMENT_3D ( 'NONE', #179, #37, #204 ) ;
#243 = ADVANCED_FACE ( 'NONE', ( #267, #32 ), #25, .T. ) ;
#244 = DIRECTION ( 'NONE',  ( -3.491481338843133355E-15, 1.224646799147353207E-16, -1.000000000000000000 ) ) ;
#245 = AXIS2_PLACEMENT_3D ( 'NONE', #149, #44, #132 ) ;
#246 = CARTESIAN_POINT ( 'NONE',  ( 1.396592535537253342E-14, 0.3499999999999992006, 4.000000000000000000 ) ) ;
#247 = EDGE_LOOP ( 'NONE', ( #4 ) ) ;
#248 = AXIS2_PLACEMENT_3D ( 'NONE', #101, #75, #29 ) ;
#249 = CARTESIAN_POINT ( 'NONE',  ( 4.782265028061785570E-14, 1.499999999999995559, 13.69695141961245710 ) ) ;
#250 = AXIS2_PLACEMENT_3D ( 'NONE', #5, #266, #8 ) ;
#251 = EDGE_LOOP ( 'NONE', ( #264 ) ) ;
#252 = CARTESIAN_POINT ( 'NONE',  ( 0.0000000000000000000, 0.0000000000000000000, 0.0000000000000000000 ) ) ;
#253 = CALENDAR_DATE ( 2021, 1, 12 ) ;
#254 = COORDINATED_UNIVERSAL_TIME_OFFSET ( 1, 0, .AHEAD. ) ;
#255 = EDGE_CURVE ( 'NONE', #182, #182, #129, .T. ) ;
#256 = MECHANICAL_CONTEXT ( 'NONE', #220, 'mechanical' ) ;
#257 = APPROVAL_PERSON_ORGANIZATION ( #233, #111, #276 ) ;
#258 = SECURITY_CLASSIFICATION_LEVEL ( 'unclassified' ) ;
#259 = DIRECTION ( 'NONE',  ( 4.275831445896959482E-31, 1.000000000000000000, 1.224646799147353207E-16 ) ) ;
#260 = FACE_OUTER_BOUND ( 'NONE', #74, .T. ) ;
#261 = APPROVAL_STATUS ( 'not_yet_approved' ) ;
#262 = MANIFOLD_SOLID_BREP ( 'Corps-Déplacer/Copier1[1]', #19 ) ;
#263 = DATE_AND_TIME ( #59, #98 ) ;
#264 = ORIENTED_EDGE ( 'NONE', *, *, #202, .F. ) ;
#265 = PRODUCT_DEFINITION ( 'UNKNOWN', '', #40, #15 ) ;
#266 = DIRECTION ( 'NONE',  ( -3.491481338843133355E-15, 1.224646799147353207E-16, -1.000000000000000000 ) ) ;
#267 = FACE_OUTER_BOUND ( 'NONE', #140, .T. ) ;
#268 = ADVANCED_FACE ( 'NONE', ( #271, #69 ), #114, .F. ) ;
#269 = CONICAL_SURFACE ( 'NONE', #46, 0.3499999999999991451, 0.5235987755982927094 ) ;
#270 = VERTEX_POINT ( 'NONE', #99 ) ;
#271 = FACE_OUTER_BOUND ( 'NONE', #247, .T. ) ;
#272 = EDGE_LOOP ( 'NONE', ( #187 ) ) ;
#273 = CLOSED_SHELL ( 'NONE', ( #134, #90, #121, #102 ) ) ;
#274 = EDGE_LOOP ( 'NONE', ( #209 ) ) ;
#275 = ORIENTED_EDGE ( 'NONE', *, *, #118, .F. ) ;
#276 = APPROVAL_ROLE ( '' ) ;
#277 = CC_DESIGN_DATE_AND_TIME_ASSIGNMENT ( #186, #234, ( #3 ) ) ;
#278 = EDGE_LOOP ( 'NONE', ( #229 ) ) ;
#279 = CARTESIAN_POINT ( 'NONE',  ( 1.396592535537253342E-14, 0.3499999999999992006, 4.000000000000000000 ) ) ;
#280 = EDGE_LOOP ( 'NONE', ( #106 ) ) ;
#281 = CARTESIAN_POINT ( 'NONE',  ( 3.491481338843132862E-16, -1.224646799147352961E-17, 0.09999999999999997780 ) ) ;
#282 = PERSON_AND_ORGANIZATION ( #61, #65 ) ;
#283 = DIRECTION ( 'NONE',  ( 4.126992737972658391E-31, 1.000000000000000000, 1.161645184805900460E-16 ) ) ;
ENDSEC;
END-ISO-10303-21;
