ISO-10303-21;
HEADER;
FILE_DESCRIPTION (( 'STEP AP203' ),
    '1' );
FILE_NAME ('200748.step',
    '2021-12-01T07:27:17',
    ( '' ),
    ( '' ),
    'SwSTEP 2.0',
    'SolidWorks 2019',
    '' );
FILE_SCHEMA (( 'CONFIG_CONTROL_DESIGN' ));
ENDSEC;

DATA;
#1 = APPROVAL_STATUS ( 'not_yet_approved' ) ;
#2 = DIRECTION ( 'NONE',  ( 0.0000000000000000000, 1.000000000000000000, 0.0000000000000000000 ) ) ;
#3 = ADVANCED_BREP_SHAPE_REPRESENTATION ( '200748', ( #41, #45, #21 ), #99 ) ;
#4 = ORIENTED_EDGE ( 'NONE', *, *, #137, .T. ) ;
#5 = CIRCLE ( 'NONE', #191, 1.200000000000003286 ) ;
#6 = DIRECTION ( 'NONE',  ( -3.491481338843133355E-15, 1.224646799147353207E-16, -1.000000000000000000 ) ) ;
#7 = CARTESIAN_POINT ( 'NONE',  ( 3.491481338843132862E-16, -1.224646799147352961E-17, 0.09999999999999997780 ) ) ;
#8 = PRODUCT_DEFINITION_SHAPE ( 'NONE', 'NONE',  #80 ) ;
#9 = EDGE_LOOP ( 'NONE', ( #271 ) ) ;
#10 = CC_DESIGN_PERSON_AND_ORGANIZATION_ASSIGNMENT ( #128, #39, ( #79 ) ) ;
#11 = CYLINDRICAL_SURFACE ( 'NONE', #105, 0.3250000000000000111 ) ;
#12 = EDGE_LOOP ( 'NONE', ( #162 ) ) ;
#13 = CONICAL_SURFACE ( 'NONE', #51, 1.200000000000003286, 0.7853981633974453924 ) ;
#14 = LOCAL_TIME ( 8, 27, 17.00000000000000000, #89 ) ;
#15 = ADVANCED_FACE ( 'NONE', ( #165, #250 ), #101, .T. ) ;
#16 = ORIENTED_EDGE ( 'NONE', *, *, #54, .F. ) ;
#17 = CIRCLE ( 'NONE', #60, 0.2672649730810376378 ) ;
#18 = CARTESIAN_POINT ( 'NONE',  ( 2.565294811559829736E-14, 0.3553844939755803067, 7.347296355333847728 ) ) ;
#19 = CARTESIAN_POINT ( 'NONE',  ( 1.326762908760390423E-13, 1.199999999999998845, 38.00000000000000000 ) ) ;
#20 = DIRECTION ( 'NONE',  ( 4.275831445896958607E-31, 1.000000000000000000, 1.224646799147353207E-16 ) ) ;
#21 = AXIS2_PLACEMENT_3D ( 'NONE', #211, #108, #62 ) ;
#22 = APPROVAL_ROLE ( '' ) ;
#23 = FACE_OUTER_BOUND ( 'NONE', #185, .T. ) ;
#24 = PERSON_AND_ORGANIZATION ( #256, #127 ) ;
#25 = DIRECTION ( 'NONE',  ( 0.0000000000000000000, 1.000000000000000000, 0.0000000000000000000 ) ) ;
#26 = COORDINATED_UNIVERSAL_TIME_OFFSET ( 1, 0, .AHEAD. ) ;
#27 = CARTESIAN_POINT ( 'NONE',  ( 1.396592535537253342E-14, -4.898587196589412829E-16, 4.000000000000000000 ) ) ;
#28 = EDGE_LOOP ( 'NONE', ( #94 ) ) ;
#29 = CC_DESIGN_PERSON_AND_ORGANIZATION_ASSIGNMENT ( #131, #106, ( #80 ) ) ;
#30 = DIRECTION ( 'NONE',  ( 4.275831445896959482E-31, 1.000000000000000000, 1.224646799147353207E-16 ) ) ;
#31 = DIRECTION ( 'NONE',  ( 3.491481338843133355E-15, -1.224646799147353207E-16, 1.000000000000000000 ) ) ;
#32 = EDGE_LOOP ( 'NONE', ( #219 ) ) ;
#33 = VERTEX_POINT ( 'NONE', #58 ) ;
#34 = CIRCLE ( 'NONE', #246, 1.499999999999997113 ) ;
#35 = EDGE_LOOP ( 'NONE', ( #78 ) ) ;
#36 = CARTESIAN_POINT ( 'NONE',  ( 1.316288464743861212E-13, 1.499999999999998668, 37.69999999999999574 ) ) ;
#37 = CARTESIAN_POINT ( 'NONE',  ( 1.396592535537253342E-14, 0.3249999999999993450, 4.000000000000000000 ) ) ;
#38 = ADVANCED_FACE ( 'NONE', ( #262 ), #188, .F. ) ;
#39 = PERSON_AND_ORGANIZATION_ROLE ( 'design_supplier' ) ;
#40 = APPROVAL_ROLE ( '' ) ;
#41 = MANIFOLD_SOLID_BREP ( 'Corps-Déplacer/Copier1[1]', #261 ) ;
#42 = PERSON_AND_ORGANIZATION ( #256, #127 ) ;
#43 = DIRECTION ( 'NONE',  ( -4.444453717816706746E-31, -1.000000000000000000, -1.251002506714046005E-16 ) ) ;
#44 = COORDINATED_UNIVERSAL_TIME_OFFSET ( 1, 0, .AHEAD. ) ;
#45 = MANIFOLD_SOLID_BREP ( 'Corps-Déplacer/Copier1[2]', #163 ) ;
#46 = ADVANCED_FACE ( 'NONE', ( #202, #23 ), #235, .T. ) ;
#47 = APPROVAL_STATUS ( 'not_yet_approved' ) ;
#48 = DIRECTION ( 'NONE',  ( -3.491481338843133355E-15, 1.224646799147353207E-16, -1.000000000000000000 ) ) ;
#49 = FACE_OUTER_BOUND ( 'NONE', #173, .T. ) ;
#50 = PLANE ( 'NONE',  #204 ) ;
#51 = AXIS2_PLACEMENT_3D ( 'NONE', #156, #243, #93 ) ;
#52 = CC_DESIGN_APPROVAL ( #124, ( #140 ) ) ;
#53 = FACE_OUTER_BOUND ( 'NONE', #67, .T. ) ;
#54 = EDGE_CURVE ( 'NONE', #33, #33, #187, .T. ) ;
#55 = CARTESIAN_POINT ( 'NONE',  ( 1.396592535537253342E-14, 0.3249999999999993450, 4.000000000000000000 ) ) ;
#56 = ADVANCED_FACE ( 'NONE', ( #257, #283 ), #13, .T. ) ;
#57 = VERTEX_POINT ( 'NONE', #18 ) ;
#58 = CARTESIAN_POINT ( 'NONE',  ( 2.444036937190193349E-14, 0.3249999999999993450, 7.000000000000000000 ) ) ;
#59 = AXIS2_PLACEMENT_3D ( 'NONE', #86, #114, #197 ) ;
#60 = AXIS2_PLACEMENT_3D ( 'NONE', #98, #273, #231 ) ;
#61 = MECHANICAL_CONTEXT ( 'NONE', #183, 'mechanical' ) ;
#62 = DIRECTION ( 'NONE',  ( 1.000000000000000000, 0.0000000000000000000, 0.0000000000000000000 ) ) ;
#63 = PERSON_AND_ORGANIZATION_ROLE ( 'classification_officer' ) ;
#64 = APPROVAL_DATE_TIME ( #151, #65 ) ;
#65 = APPROVAL ( #47, 'UNSPECIFIED' ) ;
#66 = FACE_OUTER_BOUND ( 'NONE', #258, .T. ) ;
#67 = EDGE_LOOP ( 'NONE', ( #223 ) ) ;
#68 = SHAPE_DEFINITION_REPRESENTATION ( #8, #3 ) ;
#69 = CARTESIAN_POINT ( 'NONE',  ( 4.831767964663074580E-14, -1.694756064229162466E-15, 13.83873346510289970 ) ) ;
#70 = CIRCLE ( 'NONE', #130, 0.3553844939755812504 ) ;
#71 = DIRECTION ( 'NONE',  ( -3.491481338843133355E-15, 1.224646799147353207E-16, -1.000000000000000000 ) ) ;
#72 = EDGE_LOOP ( 'NONE', ( #203 ) ) ;
#73 = DIRECTION ( 'NONE',  ( -3.491481338843133355E-15, 1.224646799147353207E-16, -1.000000000000000000 ) ) ;
#74 = DIRECTION ( 'NONE',  ( 0.0000000000000000000, 1.000000000000000000, 0.0000000000000000000 ) ) ;
#75 = LOCAL_TIME ( 8, 27, 17.00000000000000000, #126 ) ;
#76 = CARTESIAN_POINT ( 'NONE',  ( 1.326762908760390423E-13, 8.998558695971103225E-33, 38.00000000000000000 ) ) ;
#77 = EDGE_LOOP ( 'NONE', ( #226 ) ) ;
#78 = ORIENTED_EDGE ( 'NONE', *, *, #270, .T. ) ;
#79 = PRODUCT_DEFINITION_FORMATION_WITH_SPECIFIED_SOURCE ( 'ANY', '', #177, .NOT_KNOWN. ) ;
#80 = PRODUCT_DEFINITION ( 'UNKNOWN', '', #79, #234 ) ;
#81 = FACE_OUTER_BOUND ( 'NONE', #77, .T. ) ;
#82 = VERTEX_POINT ( 'NONE', #232 ) ;
#83 = AXIS2_PLACEMENT_3D ( 'NONE', #69, #132, #109 ) ;
#84 = APPROVAL_PERSON_ORGANIZATION ( #24, #124, #111 ) ;
#85 = APPLICATION_PROTOCOL_DEFINITION ( 'international standard', 'config_control_design', 1994, #193 ) ;
#86 = CARTESIAN_POINT ( 'NONE',  ( -3.347980098454573004E-32, 1.174313339603859122E-33, -9.588996112360411568E-18 ) ) ;
#87 = CIRCLE ( 'NONE', #230, 0.3249999999999994005 ) ;
#88 = ADVANCED_FACE ( 'NONE', ( #147 ), #218, .F. ) ;
#89 = COORDINATED_UNIVERSAL_TIME_OFFSET ( 1, 0, .AHEAD. ) ;
#90 = DIRECTION ( 'NONE',  ( 4.444453717816706746E-31, 1.000000000000000000, 1.251002506714046005E-16 ) ) ;
#91 = DIRECTION ( 'NONE',  ( -3.491481338843133355E-15, 1.224646799147353207E-16, -1.000000000000000000 ) ) ;
#92 = ADVANCED_FACE ( 'NONE', ( #115, #265 ), #245, .T. ) ;
#93 = DIRECTION ( 'NONE',  ( 0.0000000000000000000, 1.000000000000000000, 0.0000000000000000000 ) ) ;
#94 = ORIENTED_EDGE ( 'NONE', *, *, #137, .F. ) ;
#95 = AXIS2_PLACEMENT_3D ( 'NONE', #178, #6, #172 ) ;
#96 = CARTESIAN_POINT ( 'NONE',  ( 1.326762908760390423E-13, -4.653657836759941941E-15, 38.00000000000000000 ) ) ;
#97 = ORIENTED_EDGE ( 'NONE', *, *, #190, .T. ) ;
#98 = CARTESIAN_POINT ( 'NONE',  ( -6.695960196909146008E-32, 2.348626679207718245E-33, -1.917799222472082314E-17 ) ) ;
#99 =( GEOMETRIC_REPRESENTATION_CONTEXT ( 3 ) GLOBAL_UNCERTAINTY_ASSIGNED_CONTEXT ( ( #161 ) ) GLOBAL_UNIT_ASSIGNED_CONTEXT ( ( #125, #120, #123 ) ) REPRESENTATION_CONTEXT ( 'NONE', 'WORKASPACE' ) );
#100 = EDGE_LOOP ( 'NONE', ( #155 ) ) ;
#101 = CYLINDRICAL_SURFACE ( 'NONE', #170, 1.500000000000000222 ) ;
#102 = DIRECTION ( 'NONE',  ( -3.491481338843133355E-15, 1.224646799147353207E-16, -1.000000000000000000 ) ) ;
#103 = FACE_OUTER_BOUND ( 'NONE', #100, .T. ) ;
#104 = DIRECTION ( 'NONE',  ( 0.0000000000000000000, 1.000000000000000000, 0.0000000000000000000 ) ) ;
#105 = AXIS2_PLACEMENT_3D ( 'NONE', #210, #138, #160 ) ;
#106 = PERSON_AND_ORGANIZATION_ROLE ( 'creator' ) ;
#107 = CC_DESIGN_PERSON_AND_ORGANIZATION_ASSIGNMENT ( #217, #146, ( #177 ) ) ;
#108 = DIRECTION ( 'NONE',  ( 0.0000000000000000000, 0.0000000000000000000, 1.000000000000000000 ) ) ;
#109 = DIRECTION ( 'NONE',  ( 0.0000000000000000000, -1.000000000000000000, 0.0000000000000000000 ) ) ;
#110 = CIRCLE ( 'NONE', #180, 0.3249999999999998446 ) ;
#111 = APPROVAL_ROLE ( '' ) ;
#112 = DIRECTION ( 'NONE',  ( -3.491481338843133355E-15, 1.224646799147353207E-16, -1.000000000000000000 ) ) ;
#113 = PERSON_AND_ORGANIZATION ( #256, #127 ) ;
#114 = DIRECTION ( 'NONE',  ( 3.491481338843133355E-15, -1.224646799147353207E-16, 1.000000000000000000 ) ) ;
#115 = FACE_BOUND ( 'NONE', #267, .T. ) ;
#116 = CARTESIAN_POINT ( 'NONE',  ( 3.491481338843134341E-16, 0.3249999999999994005, 0.1000000000000000194 ) ) ;
#117 = AXIS2_PLACEMENT_3D ( 'NONE', #153, #71, #2 ) ;
#118 = CC_DESIGN_DATE_AND_TIME_ASSIGNMENT ( #253, #144, ( #80 ) ) ;
#119 = EDGE_LOOP ( 'NONE', ( #179 ) ) ;
#120 =( NAMED_UNIT ( * ) PLANE_ANGLE_UNIT ( ) SI_UNIT ( $, .RADIAN. ) );
#121 = CARTESIAN_POINT ( 'NONE',  ( 2.444036937190193349E-14, -8.673617379884035472E-16, 7.000000000000000000 ) ) ;
#122 = LOCAL_TIME ( 8, 27, 17.00000000000000000, #44 ) ;
#123 =( NAMED_UNIT ( * ) SI_UNIT ( $, .STERADIAN. ) SOLID_ANGLE_UNIT ( ) );
#124 = APPROVAL ( #148, 'UNSPECIFIED' ) ;
#125 =( LENGTH_UNIT ( ) NAMED_UNIT ( * ) SI_UNIT ( .MILLI., .METRE. ) );
#126 = COORDINATED_UNIVERSAL_TIME_OFFSET ( 1, 0, .AHEAD. ) ;
#127 = ORGANIZATION ( 'UNSPECIFIED', 'UNSPECIFIED', '' ) ;
#128 = PERSON_AND_ORGANIZATION ( #256, #127 ) ;
#129 = CARTESIAN_POINT ( 'NONE',  ( 3.491481338843132862E-16, -1.224646799147352961E-17, 0.09999999999999997780 ) ) ;
#130 = AXIS2_PLACEMENT_3D ( 'NONE', #244, #208, #74 ) ;
#131 = PERSON_AND_ORGANIZATION ( #256, #127 ) ;
#132 = DIRECTION ( 'NONE',  ( 3.491481338843133355E-15, -1.224646799147353207E-16, 1.000000000000000000 ) ) ;
#133 = EDGE_LOOP ( 'NONE', ( #97 ) ) ;
#134 = DIRECTION ( 'NONE',  ( -3.491481338843133355E-15, 1.224646799147353207E-16, -1.000000000000000000 ) ) ;
#135 = ORIENTED_EDGE ( 'NONE', *, *, #184, .F. ) ;
#136 = CIRCLE ( 'NONE', #269, 0.3249999999999998446 ) ;
#137 = EDGE_CURVE ( 'NONE', #229, #229, #87, .T. ) ;
#138 = DIRECTION ( 'NONE',  ( -3.491481338843133355E-15, 1.224646799147353207E-16, -1.000000000000000000 ) ) ;
#139 = ORIENTED_EDGE ( 'NONE', *, *, #206, .F. ) ;
#140 = SECURITY_CLASSIFICATION ( '', '', #255 ) ;
#141 = CARTESIAN_POINT ( 'NONE',  ( 4.831767964663074580E-14, 1.499999999999995559, 13.83873346510289970 ) ) ;
#142 = CC_DESIGN_APPROVAL ( #175, ( #80 ) ) ;
#143 = PERSON_AND_ORGANIZATION_ROLE ( 'creator' ) ;
#144 = DATE_TIME_ROLE ( 'creation_date' ) ;
#145 = AXIS2_PLACEMENT_3D ( 'NONE', #7, #260, #43 ) ;
#146 = PERSON_AND_ORGANIZATION_ROLE ( 'design_owner' ) ;
#147 = FACE_OUTER_BOUND ( 'NONE', #133, .T. ) ;
#148 = APPROVAL_STATUS ( 'not_yet_approved' ) ;
#149 = CARTESIAN_POINT ( 'NONE',  ( 1.396592535537253342E-14, 2.437109646825510060E-33, 4.000000000000000000 ) ) ;
#150 = EDGE_LOOP ( 'NONE', ( #139 ) ) ;
#151 = DATE_AND_TIME ( #169, #14 ) ;
#152 = ADVANCED_FACE ( 'NONE', ( #214, #195 ), #200, .T. ) ;
#153 = CARTESIAN_POINT ( 'NONE',  ( 1.316288464743861212E-13, -4.616918432785521081E-15, 37.69999999999999574 ) ) ;
#154 = TOROIDAL_SURFACE ( 'NONE', #164, 2.325000000000000622, 2.000000000000000888 ) ;
#155 = ORIENTED_EDGE ( 'NONE', *, *, #190, .F. ) ;
#156 = CARTESIAN_POINT ( 'NONE',  ( 1.326762908760390423E-13, -4.653657836759941941E-15, 38.00000000000000000 ) ) ;
#157 = ADVANCED_FACE ( 'NONE', ( #66 ), #50, .T. ) ;
#158 = VERTEX_POINT ( 'NONE', #37 ) ;
#159 = CC_DESIGN_SECURITY_CLASSIFICATION ( #140, ( #79 ) ) ;
#160 = DIRECTION ( 'NONE',  ( 4.275831445896958607E-31, 1.000000000000000000, 1.224646799147353207E-16 ) ) ;
#161 = UNCERTAINTY_MEASURE_WITH_UNIT (LENGTH_MEASURE( 1.000000000000000082E-05 ), #125, 'distance_accuracy_value', 'NONE');
#162 = ORIENTED_EDGE ( 'NONE', *, *, #270, .F. ) ;
#163 = CLOSED_SHELL ( 'NONE', ( #38, #46, #152, #157 ) ) ;
#164 = AXIS2_PLACEMENT_3D ( 'NONE', #121, #251, #222 ) ;
#165 = FACE_OUTER_BOUND ( 'NONE', #150, .T. ) ;
#166 = VERTEX_POINT ( 'NONE', #55 ) ;
#167 = FACE_OUTER_BOUND ( 'NONE', #186, .T. ) ;
#168 = CC_DESIGN_PERSON_AND_ORGANIZATION_ASSIGNMENT ( #238, #63, ( #140 ) ) ;
#169 = CALENDAR_DATE ( 2021, 1, 12 ) ;
#170 = AXIS2_PLACEMENT_3D ( 'NONE', #272, #207, #30 ) ;
#171 = DATE_TIME_ROLE ( 'classification_date' ) ;
#172 = DIRECTION ( 'NONE',  ( 4.275831445896958607E-31, 1.000000000000000000, 1.224646799147352961E-16 ) ) ;
#173 = EDGE_LOOP ( 'NONE', ( #135 ) ) ;
#174 = DATE_AND_TIME ( #196, #122 ) ;
#175 = APPROVAL ( #1, 'UNSPECIFIED' ) ;
#176 = CARTESIAN_POINT ( 'NONE',  ( 4.831767964663074580E-14, -1.694756064229162466E-15, 13.83873346510289970 ) ) ;
#177 = PRODUCT ( '200748', '200748', '', ( #61 ) ) ;
#178 = CARTESIAN_POINT ( 'NONE',  ( 0.0000000000000000000, 0.0000000000000000000, 0.0000000000000000000 ) ) ;
#179 = ORIENTED_EDGE ( 'NONE', *, *, #199, .T. ) ;
#180 = AXIS2_PLACEMENT_3D ( 'NONE', #228, #247, #104 ) ;
#181 = PLANE ( 'NONE',  #249 ) ;
#182 = ORIENTED_EDGE ( 'NONE', *, *, #206, .T. ) ;
#183 = APPLICATION_CONTEXT ( 'configuration controlled 3d designs of mechanical parts and assemblies' ) ;
#184 = EDGE_CURVE ( 'NONE', #189, #189, #5, .T. ) ;
#185 = EDGE_LOOP ( 'NONE', ( #4 ) ) ;
#186 = EDGE_LOOP ( 'NONE', ( #16 ) ) ;
#187 = CIRCLE ( 'NONE', #215, 0.3250000000000001776 ) ;
#188 = PLANE ( 'NONE',  #59 ) ;
#189 = VERTEX_POINT ( 'NONE', #19 ) ;
#190 = EDGE_CURVE ( 'NONE', #166, #166, #136, .T. ) ;
#191 = AXIS2_PLACEMENT_3D ( 'NONE', #96, #134, #25 ) ;
#192 = CALENDAR_DATE ( 2021, 1, 12 ) ;
#193 = APPLICATION_CONTEXT ( 'configuration controlled 3d designs of mechanical parts and assemblies' ) ;
#194 = CALENDAR_DATE ( 2021, 1, 12 ) ;
#195 = FACE_OUTER_BOUND ( 'NONE', #72, .T. ) ;
#196 = CALENDAR_DATE ( 2021, 1, 12 ) ;
#197 = DIRECTION ( 'NONE',  ( -4.275831445896958607E-31, -1.000000000000000000, -1.224646799147353207E-16 ) ) ;
#198 = EDGE_LOOP ( 'NONE', ( #182 ) ) ;
#199 = EDGE_CURVE ( 'NONE', #268, #268, #277, .T. ) ;
#200 = CYLINDRICAL_SURFACE ( 'NONE', #95, 0.3249999999999996225 ) ;
#201 = APPROVAL_PERSON_ORGANIZATION ( #236, #175, #40 ) ;
#202 = FACE_BOUND ( 'NONE', #12, .T. ) ;
#203 = ORIENTED_EDGE ( 'NONE', *, *, #275, .T. ) ;
#204 = AXIS2_PLACEMENT_3D ( 'NONE', #149, #239, #216 ) ;
#205 = APPROVAL_PERSON_ORGANIZATION ( #42, #65, #22 ) ;
#206 = EDGE_CURVE ( 'NONE', #274, #274, #34, .T. ) ;
#207 = DIRECTION ( 'NONE',  ( -3.491481338843133355E-15, 1.224646799147353207E-16, -1.000000000000000000 ) ) ;
#208 = DIRECTION ( 'NONE',  ( -3.491481338843133355E-15, 1.224646799147353207E-16, -1.000000000000000000 ) ) ;
#209 = AXIS2_PLACEMENT_3D ( 'NONE', #237, #31, #241 ) ;
#210 = CARTESIAN_POINT ( 'NONE',  ( 0.0000000000000000000, 0.0000000000000000000, 0.0000000000000000000 ) ) ;
#211 = CARTESIAN_POINT ( 'NONE',  ( 0.0000000000000000000, 0.0000000000000000000, 0.0000000000000000000 ) ) ;
#212 = DATE_AND_TIME ( #194, #75 ) ;
#213 = ADVANCED_FACE ( 'NONE', ( #49 ), #181, .F. ) ;
#214 = FACE_OUTER_BOUND ( 'NONE', #28, .T. ) ;
#215 = AXIS2_PLACEMENT_3D ( 'NONE', #266, #73, #220 ) ;
#216 = DIRECTION ( 'NONE',  ( -4.275831445896958607E-31, -1.000000000000000000, -1.224646799147353207E-16 ) ) ;
#217 = PERSON_AND_ORGANIZATION ( #256, #127 ) ;
#218 = PLANE ( 'NONE',  #209 ) ;
#219 = ORIENTED_EDGE ( 'NONE', *, *, #199, .F. ) ;
#220 = DIRECTION ( 'NONE',  ( 0.0000000000000000000, 1.000000000000000000, 0.0000000000000000000 ) ) ;
#221 = ORIENTED_EDGE ( 'NONE', *, *, #252, .F. ) ;
#222 = DIRECTION ( 'NONE',  ( 4.398630495160585861E-31, 1.000000000000000000, 1.224646799147353207E-16 ) ) ;
#223 = ORIENTED_EDGE ( 'NONE', *, *, #54, .T. ) ;
#224 = ADVANCED_FACE ( 'NONE', ( #167, #81 ), #154, .F. ) ;
#225 = ORIENTED_EDGE ( 'NONE', *, *, #275, .F. ) ;
#226 = ORIENTED_EDGE ( 'NONE', *, *, #252, .T. ) ;
#227 = CC_DESIGN_DATE_AND_TIME_ASSIGNMENT ( #212, #171, ( #140 ) ) ;
#228 = CARTESIAN_POINT ( 'NONE',  ( 1.396592535537253342E-14, -4.898587196589412829E-16, 4.000000000000000000 ) ) ;
#229 = VERTEX_POINT ( 'NONE', #116 ) ;
#230 = AXIS2_PLACEMENT_3D ( 'NONE', #129, #91, #90 ) ;
#231 = DIRECTION ( 'NONE',  ( 4.275831445896958607E-31, 1.000000000000000000, 1.224646799147353454E-16 ) ) ;
#232 = CARTESIAN_POINT ( 'NONE',  ( 4.731839565957903391E-32, 0.2672649730810376378, 1.355252715606880543E-17 ) ) ;
#233 = CC_DESIGN_PERSON_AND_ORGANIZATION_ASSIGNMENT ( #113, #143, ( #79 ) ) ;
#234 = DESIGN_CONTEXT ( 'detailed design', #193, 'design' ) ;
#235 = CONICAL_SURFACE ( 'NONE', #145, 0.3249999999999994005, 0.5235987755982927094 ) ;
#236 = PERSON_AND_ORGANIZATION ( #256, #127 ) ;
#237 = CARTESIAN_POINT ( 'NONE',  ( 1.396592535537253342E-14, 2.437109646825510060E-33, 4.000000000000000000 ) ) ;
#238 = PERSON_AND_ORGANIZATION ( #256, #127 ) ;
#239 = DIRECTION ( 'NONE',  ( 3.491481338843133355E-15, -1.224646799147353207E-16, 1.000000000000000000 ) ) ;
#240 = APPROVAL_DATE_TIME ( #174, #124 ) ;
#241 = DIRECTION ( 'NONE',  ( -4.275831445896958607E-31, -1.000000000000000000, -1.224646799147353207E-16 ) ) ;
#242 = DIRECTION ( 'NONE',  ( 0.0000000000000000000, 1.000000000000000000, 0.0000000000000000000 ) ) ;
#243 = DIRECTION ( 'NONE',  ( -3.491481338843133355E-15, 1.224646799147353207E-16, -1.000000000000000000 ) ) ;
#244 = CARTESIAN_POINT ( 'NONE',  ( 2.565294811559829736E-14, -8.997842963946611302E-16, 7.347296355333847728 ) ) ;
#245 = CONICAL_SURFACE ( 'NONE', #83, 1.499999999999997113, 0.1745329251994262032 ) ;
#246 = AXIS2_PLACEMENT_3D ( 'NONE', #176, #48, #242 ) ;
#247 = DIRECTION ( 'NONE',  ( -3.491481338843133355E-15, 1.224646799147353207E-16, -1.000000000000000000 ) ) ;
#248 = PRODUCT_RELATED_PRODUCT_CATEGORY ( 'detail', '', ( #177 ) ) ;
#249 = AXIS2_PLACEMENT_3D ( 'NONE', #76, #102, #20 ) ;
#250 = FACE_OUTER_BOUND ( 'NONE', #119, .T. ) ;
#251 = DIRECTION ( 'NONE',  ( -3.491481338843133355E-15, 1.224646799147353207E-16, -1.000000000000000000 ) ) ;
#252 = EDGE_CURVE ( 'NONE', #57, #57, #70, .T. ) ;
#253 = DATE_AND_TIME ( #259, #282 ) ;
#254 = LOCAL_TIME ( 8, 27, 17.00000000000000000, #281 ) ;
#255 = SECURITY_CLASSIFICATION_LEVEL ( 'unclassified' ) ;
#256 = PERSON ( 'UNSPECIFIED', 'UNSPECIFIED', 'UNSPECIFIED', ('UNSPECIFIED'), ('UNSPECIFIED'), ('UNSPECIFIED') ) ;
#257 = FACE_OUTER_BOUND ( 'NONE', #32, .T. ) ;
#258 = EDGE_LOOP ( 'NONE', ( #225 ) ) ;
#259 = CALENDAR_DATE ( 2021, 1, 12 ) ;
#260 = DIRECTION ( 'NONE',  ( 3.491481338843133355E-15, -1.224646799147353207E-16, 1.000000000000000000 ) ) ;
#261 = CLOSED_SHELL ( 'NONE', ( #88, #279, #224, #92, #15, #56, #213 ) ) ;
#262 = FACE_OUTER_BOUND ( 'NONE', #35, .T. ) ;
#263 = CC_DESIGN_APPROVAL ( #65, ( #79 ) ) ;
#264 = DIRECTION ( 'NONE',  ( 0.0000000000000000000, 1.000000000000000000, 0.0000000000000000000 ) ) ;
#265 = FACE_OUTER_BOUND ( 'NONE', #198, .T. ) ;
#266 = CARTESIAN_POINT ( 'NONE',  ( 2.444036937190193349E-14, -8.572527594031473190E-16, 7.000000000000000000 ) ) ;
#267 = EDGE_LOOP ( 'NONE', ( #221 ) ) ;
#268 = VERTEX_POINT ( 'NONE', #36 ) ;
#269 = AXIS2_PLACEMENT_3D ( 'NONE', #27, #112, #264 ) ;
#270 = EDGE_CURVE ( 'NONE', #82, #82, #17, .T. ) ;
#271 = ORIENTED_EDGE ( 'NONE', *, *, #184, .T. ) ;
#272 = CARTESIAN_POINT ( 'NONE',  ( 0.0000000000000000000, 0.0000000000000000000, 0.0000000000000000000 ) ) ;
#273 = DIRECTION ( 'NONE',  ( -3.491481338843133355E-15, 1.224646799147353207E-16, -1.000000000000000000 ) ) ;
#274 = VERTEX_POINT ( 'NONE', #141 ) ;
#275 = EDGE_CURVE ( 'NONE', #158, #158, #110, .T. ) ;
#276 = APPLICATION_PROTOCOL_DEFINITION ( 'international standard', 'config_control_design', 1994, #183 ) ;
#277 = CIRCLE ( 'NONE', #117, 1.500000000000003331 ) ;
#278 = DATE_AND_TIME ( #192, #254 ) ;
#279 = ADVANCED_FACE ( 'NONE', ( #103, #53 ), #11, .T. ) ;
#280 = APPROVAL_DATE_TIME ( #278, #175 ) ;
#281 = COORDINATED_UNIVERSAL_TIME_OFFSET ( 1, 0, .AHEAD. ) ;
#282 = LOCAL_TIME ( 8, 27, 17.00000000000000000, #26 ) ;
#283 = FACE_BOUND ( 'NONE', #9, .T. ) ;
ENDSEC;
END-ISO-10303-21;
