ISO-10303-21;
HEADER;
FILE_DESCRIPTION (( 'STEP AP203' ),
    '1' );
FILE_NAME ('200747.step',
    '2021-12-02T07:16:28',
    ( '' ),
    ( '' ),
    'SwSTEP 2.0',
    'SolidWorks 2019',
    '' );
FILE_SCHEMA (( 'CONFIG_CONTROL_DESIGN' ));
ENDSEC;

DATA;
#1 = CARTESIAN_POINT ( 'NONE',  ( 9.235322783731660292E-14, -3.239315175585918972E-15, 26.45101573646585891 ) ) ;
#2 = PRODUCT_RELATED_PRODUCT_CATEGORY ( 'detail', '', ( #171 ) ) ;
#3 = ADVANCED_FACE ( 'NONE', ( #18 ), #88, .T. ) ;
#4 = VERTEX_POINT ( 'NONE', #283 ) ;
#5 = APPROVAL_DATE_TIME ( #268, #203 ) ;
#6 = CARTESIAN_POINT ( 'NONE',  ( 0.0000000000000000000, 0.0000000000000000000, 0.0000000000000000000 ) ) ;
#7 = ORIENTED_EDGE ( 'NONE', *, *, #208, .F. ) ;
#8 =( LENGTH_UNIT ( ) NAMED_UNIT ( * ) SI_UNIT ( .MILLI., .METRE. ) );
#9 = LOCAL_TIME ( 8, 16, 28.00000000000000000, #225 ) ;
#10 = EDGE_LOOP ( 'NONE', ( #297 ) ) ;
#11 = EDGE_CURVE ( 'NONE', #28, #28, #91, .T. ) ;
#12 = CALENDAR_DATE ( 2021, 2, 12 ) ;
#13 = DATE_AND_TIME ( #246, #9 ) ;
#14 = EDGE_LOOP ( 'NONE', ( #92 ) ) ;
#15 = APPROVAL_STATUS ( 'not_yet_approved' ) ;
#16 = DIRECTION ( 'NONE',  ( -3.491481338843133355E-15, 1.224646799147353454E-16, -1.000000000000000000 ) ) ;
#17 = CARTESIAN_POINT ( 'NONE',  ( 0.0000000000000000000, 0.0000000000000000000, 0.0000000000000000000 ) ) ;
#18 = FACE_OUTER_BOUND ( 'NONE', #110, .T. ) ;
#19 = PLANE ( 'NONE',  #119 ) ;
#20 = UNCERTAINTY_MEASURE_WITH_UNIT (LENGTH_MEASURE( 1.000000000000000082E-05 ), #8, 'distance_accuracy_value', 'NONE');
#21 = EDGE_CURVE ( 'NONE', #216, #216, #276, .T. ) ;
#22 = CARTESIAN_POINT ( 'NONE',  ( 8.728703347107827472E-16, -3.061616997868381785E-17, 0.2499999999999998335 ) ) ;
#23 = LOCAL_TIME ( 8, 16, 28.00000000000000000, #251 ) ;
#24 = PRODUCT_DEFINITION_FORMATION_WITH_SPECIFIED_SOURCE ( 'ANY', '', #171, .NOT_KNOWN. ) ;
#25 = DIRECTION ( 'NONE',  ( 3.890767564418661584E-31, 1.000000000000000000, 1.095153709581318538E-16 ) ) ;
#26 = CARTESIAN_POINT ( 'NONE',  ( 9.235322783731660292E-14, -3.239315175585918972E-15, 26.45101573646585891 ) ) ;
#27 = APPROVAL ( #15, 'UNSPECIFIED' ) ;
#28 = VERTEX_POINT ( 'NONE', #127 ) ;
#29 = AXIS2_PLACEMENT_3D ( 'NONE', #137, #201, #141 ) ;
#30 = DIRECTION ( 'NONE',  ( -3.491481338843133355E-15, 1.224646799147353454E-16, -1.000000000000000000 ) ) ;
#31 = VERTEX_POINT ( 'NONE', #269 ) ;
#32 = PERSON_AND_ORGANIZATION_ROLE ( 'creator' ) ;
#33 = ADVANCED_FACE ( 'NONE', ( #236, #46 ), #135, .T. ) ;
#34 = APPLICATION_PROTOCOL_DEFINITION ( 'international standard', 'config_control_design', 1994, #122 ) ;
#35 = ORIENTED_EDGE ( 'NONE', *, *, #165, .F. ) ;
#36 = DATE_TIME_ROLE ( 'creation_date' ) ;
#37 = EDGE_LOOP ( 'NONE', ( #151 ) ) ;
#38 = ADVANCED_FACE ( 'NONE', ( #138, #256 ), #275, .T. ) ;
#39 = APPROVAL_STATUS ( 'not_yet_approved' ) ;
#40 = APPROVAL_PERSON_ORGANIZATION ( #64, #27, #226 ) ;
#41 = ORGANIZATION ( 'UNSPECIFIED', 'UNSPECIFIED', '' ) ;
#42 = ORIENTED_EDGE ( 'NONE', *, *, #82, .T. ) ;
#43 = ORIENTED_EDGE ( 'NONE', *, *, #126, .F. ) ;
#44 = EDGE_LOOP ( 'NONE', ( #292 ) ) ;
#45 = CC_DESIGN_DATE_AND_TIME_ASSIGNMENT ( #152, #36, ( #302 ) ) ;
#46 = FACE_BOUND ( 'NONE', #44, .T. ) ;
#47 = DIRECTION ( 'NONE',  ( 3.491481338843133355E-15, -1.224646799147353454E-16, 1.000000000000000000 ) ) ;
#48 = FACE_BOUND ( 'NONE', #136, .T. ) ;
#49 = CARTESIAN_POINT ( 'NONE',  ( 2.119329172677781757E-13, -7.433606070824434221E-15, 60.69999999999999574 ) ) ;
#50 = AXIS2_PLACEMENT_3D ( 'NONE', #49, #53, #260 ) ;
#51 = CALENDAR_DATE ( 2021, 2, 12 ) ;
#52 = CARTESIAN_POINT ( 'NONE',  ( 3.491481338843133355E-14, 1.113571638626427823E-32, 10.00000000000000000 ) ) ;
#53 = DIRECTION ( 'NONE',  ( -3.491481338843133355E-15, 1.224646799147353454E-16, -1.000000000000000000 ) ) ;
#54 = DIRECTION ( 'NONE',  ( -3.491481338843133355E-15, 1.224646799147353454E-16, -1.000000000000000000 ) ) ;
#55 = CIRCLE ( 'NONE', #228, 1.485000000000000098 ) ;
#56 = DATE_AND_TIME ( #80, #23 ) ;
#57 = EDGE_LOOP ( 'NONE', ( #161 ) ) ;
#58 = CC_DESIGN_PERSON_AND_ORGANIZATION_ASSIGNMENT ( #61, #84, ( #171 ) ) ;
#59 = CALENDAR_DATE ( 2021, 2, 12 ) ;
#60 = ORIENTED_EDGE ( 'NONE', *, *, #208, .T. ) ;
#61 = PERSON_AND_ORGANIZATION ( #214, #41 ) ;
#62 = ADVANCED_FACE ( 'NONE', ( #179 ), #19, .F. ) ;
#63 = PERSON_AND_ORGANIZATION_ROLE ( 'classification_officer' ) ;
#64 = PERSON_AND_ORGANIZATION ( #214, #41 ) ;
#65 = DIRECTION ( 'NONE',  ( -3.491481338843133355E-15, 1.224646799147353454E-16, -1.000000000000000000 ) ) ;
#66 = CIRCLE ( 'NONE', #98, 1.484999999999998765 ) ;
#67 = APPROVAL_PERSON_ORGANIZATION ( #104, #162, #173 ) ;
#68 = DIRECTION ( 'NONE',  ( 3.491481338843133355E-15, -1.224646799147353454E-16, 1.000000000000000000 ) ) ;
#69 = ADVANCED_FACE ( 'NONE', ( #118 ), #254, .F. ) ;
#70 = FACE_OUTER_BOUND ( 'NONE', #234, .T. ) ;
#71 = MANIFOLD_SOLID_BREP ( 'Corps-Déplacer/Copier1[2]', #290 ) ;
#72 = CARTESIAN_POINT ( 'NONE',  ( 3.491481338843133355E-14, -1.224646799147353454E-15, 10.00000000000000000 ) ) ;
#73 = EDGE_LOOP ( 'NONE', ( #7 ) ) ;
#74 = FACE_OUTER_BOUND ( 'NONE', #108, .T. ) ;
#75 = APPLICATION_CONTEXT ( 'configuration controlled 3d designs of mechanical parts and assemblies' ) ;
#76 = DIRECTION ( 'NONE',  ( -3.491481338843133355E-15, 1.224646799147353454E-16, -1.000000000000000000 ) ) ;
#77 = DIRECTION ( 'NONE',  ( -3.491481338843133355E-15, 1.224646799147353454E-16, -1.000000000000000000 ) ) ;
#78 = FACE_OUTER_BOUND ( 'NONE', #57, .T. ) ;
#79 = DIRECTION ( 'NONE',  ( 3.491481338843133355E-15, -1.224646799147353454E-16, 1.000000000000000000 ) ) ;
#80 = CALENDAR_DATE ( 2021, 2, 12 ) ;
#81 = CC_DESIGN_APPROVAL ( #27, ( #227 ) ) ;
#82 = EDGE_CURVE ( 'NONE', #100, #100, #286, .T. ) ;
#83 = APPROVAL_PERSON_ORGANIZATION ( #224, #203, #133 ) ;
#84 = PERSON_AND_ORGANIZATION_ROLE ( 'design_owner' ) ;
#85 = VERTEX_POINT ( 'NONE', #105 ) ;
#86 = ADVANCED_FACE ( 'NONE', ( #293, #70 ), #255, .T. ) ;
#87 = DATE_AND_TIME ( #51, #210 ) ;
#88 = PLANE ( 'NONE',  #181 ) ;
#89 =( GEOMETRIC_REPRESENTATION_CONTEXT ( 3 ) GLOBAL_UNCERTAINTY_ASSIGNED_CONTEXT ( ( #20 ) ) GLOBAL_UNIT_ASSIGNED_CONTEXT ( ( #8, #288, #176 ) ) REPRESENTATION_CONTEXT ( 'NONE', 'WORKASPACE' ) );
#90 = APPROVAL_DATE_TIME ( #87, #27 ) ;
#91 = CIRCLE ( 'NONE', #196, 1.305384493975580540 ) ;
#92 = ORIENTED_EDGE ( 'NONE', *, *, #235, .T. ) ;
#93 = DIRECTION ( 'NONE',  ( -4.275831445896959482E-31, -1.000000000000000000, -1.224646799147353454E-16 ) ) ;
#94 = EDGE_CURVE ( 'NONE', #4, #4, #55, .T. ) ;
#95 = EDGE_LOOP ( 'NONE', ( #298 ) ) ;
#96 = AXIS2_PLACEMENT_3D ( 'NONE', #112, #231, #183 ) ;
#97 = FACE_OUTER_BOUND ( 'NONE', #95, .T. ) ;
#98 = AXIS2_PLACEMENT_3D ( 'NONE', #163, #30, #25 ) ;
#99 = FACE_BOUND ( 'NONE', #250, .T. ) ;
#100 = VERTEX_POINT ( 'NONE', #189 ) ;
#101 = ADVANCED_FACE ( 'NONE', ( #74 ), #120, .F. ) ;
#102 = DIRECTION ( 'NONE',  ( 3.491481338843133355E-15, -1.224646799147353454E-16, 1.000000000000000000 ) ) ;
#103 = DIRECTION ( 'NONE',  ( 0.0000000000000000000, 1.000000000000000000, 0.0000000000000000000 ) ) ;
#104 = PERSON_AND_ORGANIZATION ( #214, #41 ) ;
#105 = CARTESIAN_POINT ( 'NONE',  ( 3.618477223366789168E-14, 1.274999999999996803, 10.36373066958947220 ) ) ;
#106 = CONICAL_SURFACE ( 'NONE', #160, 1.499999999999996003, 0.1745329251994261754 ) ;
#107 = AXIS2_PLACEMENT_3D ( 'NONE', #144, #77, #212 ) ;
#108 = EDGE_LOOP ( 'NONE', ( #60 ) ) ;
#109 = PERSON_AND_ORGANIZATION ( #214, #41 ) ;
#110 = EDGE_LOOP ( 'NONE', ( #220 ) ) ;
#111 = APPROVAL_DATE_TIME ( #13, #162 ) ;
#112 = CARTESIAN_POINT ( 'NONE',  ( 3.618477223366789168E-14, -1.269190959173800578E-15, 10.36373066958947220 ) ) ;
#113 = EDGE_LOOP ( 'NONE', ( #295 ) ) ;
#114 = CARTESIAN_POINT ( 'NONE',  ( 3.491481338843133355E-14, 1.113571638626427823E-32, 10.00000000000000000 ) ) ;
#115 = ADVANCED_FACE ( 'NONE', ( #97, #125 ), #265, .F. ) ;
#116 = DATE_TIME_ROLE ( 'classification_date' ) ;
#117 = CARTESIAN_POINT ( 'NONE',  ( -2.640325917841375780E-31, 9.261016657936986329E-33, -7.562193984734917043E-17 ) ) ;
#118 = FACE_OUTER_BOUND ( 'NONE', #197, .T. ) ;
#119 = AXIS2_PLACEMENT_3D ( 'NONE', #117, #68, #233 ) ;
#120 = PLANE ( 'NONE',  #145 ) ;
#121 = LOCAL_TIME ( 8, 16, 28.00000000000000000, #198 ) ;
#122 = APPLICATION_CONTEXT ( 'configuration controlled 3d designs of mechanical parts and assemblies' ) ;
#123 = CARTESIAN_POINT ( 'NONE',  ( 8.728703347107833388E-14, -3.035766082959412415E-15, 25.00000000000000000 ) ) ;
#124 = DIRECTION ( 'NONE',  ( 0.0000000000000000000, 1.000000000000000000, 0.0000000000000000000 ) ) ;
#125 = FACE_OUTER_BOUND ( 'NONE', #140, .T. ) ;
#126 = EDGE_CURVE ( 'NONE', #170, #170, #238, .T. ) ;
#127 = CARTESIAN_POINT ( 'NONE',  ( 8.849961221477469775E-14, 1.305384493975577653, 25.34729635533384595 ) ) ;
#128 = CARTESIAN_POINT ( 'NONE',  ( -8.552847072295026068E-47, 1.235000000000001430, 0.0000000000000000000 ) ) ;
#129 = EDGE_LOOP ( 'NONE', ( #35 ) ) ;
#130 = AXIS2_PLACEMENT_3D ( 'NONE', #6, #192, #244 ) ;
#131 = COORDINATED_UNIVERSAL_TIME_OFFSET ( 1, 0, .AHEAD. ) ;
#132 = ORIENTED_EDGE ( 'NONE', *, *, #94, .T. ) ;
#133 = APPROVAL_ROLE ( '' ) ;
#134 = CIRCLE ( 'NONE', #172, 1.235000000000001430 ) ;
#135 = CONICAL_SURFACE ( 'NONE', #96, 1.274999999999998135, 0.5235987755982933756 ) ;
#136 = EDGE_LOOP ( 'NONE', ( #185 ) ) ;
#137 = CARTESIAN_POINT ( 'NONE',  ( 2.129803616694311221E-13, -7.470345474798856659E-15, 61.00000000000000000 ) ) ;
#138 = FACE_OUTER_BOUND ( 'NONE', #37, .T. ) ;
#139 = CC_DESIGN_PERSON_AND_ORGANIZATION_ASSIGNMENT ( #271, #63, ( #227 ) ) ;
#140 = EDGE_LOOP ( 'NONE', ( #157 ) ) ;
#141 = DIRECTION ( 'NONE',  ( 0.0000000000000000000, 1.000000000000000000, 0.0000000000000000000 ) ) ;
#142 = DIRECTION ( 'NONE',  ( 4.275831445896959482E-31, 1.000000000000000000, 1.224646799147353454E-16 ) ) ;
#143 = AXIS2_PLACEMENT_3D ( 'NONE', #26, #215, #239 ) ;
#144 = CARTESIAN_POINT ( 'NONE',  ( 3.491481338843133355E-14, -1.224646799147353454E-15, 10.00000000000000000 ) ) ;
#145 = AXIS2_PLACEMENT_3D ( 'NONE', #52, #79, #168 ) ;
#146 = DIRECTION ( 'NONE',  ( -3.491481338843133355E-15, 1.224646799147353454E-16, -1.000000000000000000 ) ) ;
#147 = FACE_BOUND ( 'NONE', #230, .T. ) ;
#148 = VERTEX_POINT ( 'NONE', #242 ) ;
#149 = AXIS2_PLACEMENT_3D ( 'NONE', #277, #65, #202 ) ;
#150 = CC_DESIGN_PERSON_AND_ORGANIZATION_ASSIGNMENT ( #109, #249, ( #302 ) ) ;
#151 = ORIENTED_EDGE ( 'NONE', *, *, #232, .F. ) ;
#152 = DATE_AND_TIME ( #59, #121 ) ;
#153 = APPROVAL_STATUS ( 'not_yet_approved' ) ;
#154 = DIRECTION ( 'NONE',  ( -3.491481338843133355E-15, 1.224646799147353454E-16, -1.000000000000000000 ) ) ;
#155 = CC_DESIGN_APPROVAL ( #203, ( #302 ) ) ;
#156 = AXIS2_PLACEMENT_3D ( 'NONE', #17, #204, #184 ) ;
#157 = ORIENTED_EDGE ( 'NONE', *, *, #11, .T. ) ;
#158 = DIRECTION ( 'NONE',  ( 4.275831445896959482E-31, 1.000000000000000000, 1.224646799147353454E-16 ) ) ;
#159 = DIRECTION ( 'NONE',  ( -3.491481338843133355E-15, 1.224646799147353454E-16, -1.000000000000000000 ) ) ;
#160 = AXIS2_PLACEMENT_3D ( 'NONE', #1, #102, #259 ) ;
#161 = ORIENTED_EDGE ( 'NONE', *, *, #165, .T. ) ;
#162 = APPROVAL ( #153, 'UNSPECIFIED' ) ;
#163 = CARTESIAN_POINT ( 'NONE',  ( 8.728703347107827472E-16, -3.061616997868381785E-17, 0.2499999999999998335 ) ) ;
#164 = DESIGN_CONTEXT ( 'detailed design', #122, 'design' ) ;
#165 = EDGE_CURVE ( 'NONE', #148, #148, #66, .T. ) ;
#166 = CARTESIAN_POINT ( 'NONE',  ( 3.618477223366789168E-14, -1.269190959173800578E-15, 10.36373066958947220 ) ) ;
#167 = AXIS2_PLACEMENT_3D ( 'NONE', #209, #16, #158 ) ;
#168 = DIRECTION ( 'NONE',  ( -4.275831445896959482E-31, -1.000000000000000000, -1.224646799147353454E-16 ) ) ;
#169 = FACE_OUTER_BOUND ( 'NONE', #247, .T. ) ;
#170 = VERTEX_POINT ( 'NONE', #263 ) ;
#171 = PRODUCT ( '200747', '200747', '', ( #218 ) ) ;
#172 = AXIS2_PLACEMENT_3D ( 'NONE', #301, #76, #190 ) ;
#173 = APPROVAL_ROLE ( '' ) ;
#174 = CLOSED_SHELL ( 'NONE', ( #101, #33, #86, #115, #219, #38, #248, #69 ) ) ;
#175 = CARTESIAN_POINT ( 'NONE',  ( 3.491481338843133355E-14, 1.484999999999998765, 10.00000000000000000 ) ) ;
#176 =( NAMED_UNIT ( * ) SI_UNIT ( $, .STERADIAN. ) SOLID_ANGLE_UNIT ( ) );
#177 = SECURITY_CLASSIFICATION_LEVEL ( 'unclassified' ) ;
#178 = CARTESIAN_POINT ( 'NONE',  ( 0.0000000000000000000, 0.0000000000000000000, 0.0000000000000000000 ) ) ;
#179 = FACE_OUTER_BOUND ( 'NONE', #14, .T. ) ;
#180 = AXIS2_PLACEMENT_3D ( 'NONE', #123, #146, #142 ) ;
#181 = AXIS2_PLACEMENT_3D ( 'NONE', #114, #47, #93 ) ;
#182 = CC_DESIGN_APPROVAL ( #162, ( #24 ) ) ;
#183 = DIRECTION ( 'NONE',  ( 0.0000000000000000000, 1.000000000000000000, 0.0000000000000000000 ) ) ;
#184 = DIRECTION ( 'NONE',  ( 4.275831445896959482E-31, 1.000000000000000000, 1.224646799147353454E-16 ) ) ;
#185 = ORIENTED_EDGE ( 'NONE', *, *, #21, .T. ) ;
#186 = CONICAL_SURFACE ( 'NONE', #243, 1.200000000000002842, 0.7853981633974453924 ) ;
#187 = VERTEX_POINT ( 'NONE', #175 ) ;
#188 = DIRECTION ( 'NONE',  ( -3.491481338843133355E-15, 1.224646799147353454E-16, -1.000000000000000000 ) ) ;
#189 = CARTESIAN_POINT ( 'NONE',  ( 8.728703347107833388E-14, 1.274999999999996581, 25.00000000000000000 ) ) ;
#190 = DIRECTION ( 'NONE',  ( 4.275831445896959482E-31, 1.000000000000000000, 1.224646799147353454E-16 ) ) ;
#191 = FACE_OUTER_BOUND ( 'NONE', #129, .T. ) ;
#192 = DIRECTION ( 'NONE',  ( 0.0000000000000000000, 0.0000000000000000000, 1.000000000000000000 ) ) ;
#193 = CC_DESIGN_PERSON_AND_ORGANIZATION_ASSIGNMENT ( #266, #289, ( #24 ) ) ;
#194 = CC_DESIGN_SECURITY_CLASSIFICATION ( #227, ( #24 ) ) ;
#195 = ORIENTED_EDGE ( 'NONE', *, *, #235, .F. ) ;
#196 = AXIS2_PLACEMENT_3D ( 'NONE', #258, #154, #272 ) ;
#197 = EDGE_LOOP ( 'NONE', ( #287 ) ) ;
#198 = COORDINATED_UNIVERSAL_TIME_OFFSET ( 1, 0, .AHEAD. ) ;
#199 = PERSON_AND_ORGANIZATION ( #214, #41 ) ;
#200 = ADVANCED_FACE ( 'NONE', ( #191, #281 ), #240, .T. ) ;
#201 = DIRECTION ( 'NONE',  ( -3.491481338843133355E-15, 1.224646799147353454E-16, -1.000000000000000000 ) ) ;
#202 = DIRECTION ( 'NONE',  ( 0.0000000000000000000, 1.000000000000000000, 0.0000000000000000000 ) ) ;
#203 = APPROVAL ( #39, 'UNSPECIFIED' ) ;
#204 = DIRECTION ( 'NONE',  ( -3.491481338843133355E-15, 1.224646799147353454E-16, -1.000000000000000000 ) ) ;
#205 = DIRECTION ( 'NONE',  ( -3.491481338843133355E-15, 1.224646799147353454E-16, -1.000000000000000000 ) ) ;
#206 = PRODUCT_DEFINITION_SHAPE ( 'NONE', 'NONE',  #302 ) ;
#207 = ADVANCED_BREP_SHAPE_REPRESENTATION ( '200747', ( #274, #71, #130 ), #89 ) ;
#208 = EDGE_CURVE ( 'NONE', #187, #187, #221, .T. ) ;
#209 = CARTESIAN_POINT ( 'NONE',  ( 2.129803616694311221E-13, 8.998558695971062171E-33, 61.00000000000000000 ) ) ;
#210 = LOCAL_TIME ( 8, 16, 28.00000000000000000, #257 ) ;
#211 = CONICAL_SURFACE ( 'NONE', #299, 1.484999999999998765, 0.7853981633974426169 ) ;
#212 = DIRECTION ( 'NONE',  ( 0.0000000000000000000, 1.000000000000000000, 0.0000000000000000000 ) ) ;
#213 = CARTESIAN_POINT ( 'NONE',  ( 2.129803616694311221E-13, -7.470345474798856659E-15, 61.00000000000000000 ) ) ;
#214 = PERSON ( 'UNSPECIFIED', 'UNSPECIFIED', 'UNSPECIFIED', ('UNSPECIFIED'), ('UNSPECIFIED'), ('UNSPECIFIED') ) ;
#215 = DIRECTION ( 'NONE',  ( -3.491481338843133355E-15, 1.224646799147353454E-16, -1.000000000000000000 ) ) ;
#216 = VERTEX_POINT ( 'NONE', #279 ) ;
#217 = CARTESIAN_POINT ( 'NONE',  ( 0.0000000000000000000, 0.0000000000000000000, 0.0000000000000000000 ) ) ;
#218 = MECHANICAL_CONTEXT ( 'NONE', #75, 'mechanical' ) ;
#219 = ADVANCED_FACE ( 'NONE', ( #99, #169 ), #106, .T. ) ;
#220 = ORIENTED_EDGE ( 'NONE', *, *, #94, .F. ) ;
#221 = CIRCLE ( 'NONE', #107, 1.485000000000000098 ) ;
#222 = VERTEX_POINT ( 'NONE', #128 ) ;
#223 = EDGE_LOOP ( 'NONE', ( #132 ) ) ;
#224 = PERSON_AND_ORGANIZATION ( #214, #41 ) ;
#225 = COORDINATED_UNIVERSAL_TIME_OFFSET ( 1, 0, .AHEAD. ) ;
#226 = APPROVAL_ROLE ( '' ) ;
#227 = SECURITY_CLASSIFICATION ( '', '', #177 ) ;
#228 = AXIS2_PLACEMENT_3D ( 'NONE', #72, #159, #124 ) ;
#229 = CC_DESIGN_DATE_AND_TIME_ASSIGNMENT ( #56, #116, ( #227 ) ) ;
#230 = EDGE_LOOP ( 'NONE', ( #195 ) ) ;
#231 = DIRECTION ( 'NONE',  ( -3.491481338843133355E-15, 1.224646799147353454E-16, -1.000000000000000000 ) ) ;
#232 = EDGE_CURVE ( 'NONE', #31, #31, #273, .T. ) ;
#233 = DIRECTION ( 'NONE',  ( -4.275831445896959482E-31, -1.000000000000000000, -1.224646799147353454E-16 ) ) ;
#234 = EDGE_LOOP ( 'NONE', ( #42 ) ) ;
#235 = EDGE_CURVE ( 'NONE', #222, #222, #134, .T. ) ;
#236 = FACE_OUTER_BOUND ( 'NONE', #73, .T. ) ;
#237 = FACE_OUTER_BOUND ( 'NONE', #270, .T. ) ;
#238 = CIRCLE ( 'NONE', #50, 1.500000000000002887 ) ;
#239 = DIRECTION ( 'NONE',  ( 0.0000000000000000000, 1.000000000000000000, 0.0000000000000000000 ) ) ;
#240 = CYLINDRICAL_SURFACE ( 'NONE', #267, 1.484999999999999432 ) ;
#241 = DIRECTION ( 'NONE',  ( -3.890767564418661584E-31, -1.000000000000000000, -1.095153709581318538E-16 ) ) ;
#242 = CARTESIAN_POINT ( 'NONE',  ( 8.728703347107833388E-16, 1.484999999999998765, 0.2500000000000000000 ) ) ;
#243 = AXIS2_PLACEMENT_3D ( 'NONE', #213, #188, #282 ) ;
#244 = DIRECTION ( 'NONE',  ( 1.000000000000000000, 0.0000000000000000000, 0.0000000000000000000 ) ) ;
#245 = ORIENTED_EDGE ( 'NONE', *, *, #232, .T. ) ;
#246 = CALENDAR_DATE ( 2021, 2, 12 ) ;
#247 = EDGE_LOOP ( 'NONE', ( #245 ) ) ;
#248 = ADVANCED_FACE ( 'NONE', ( #237, #48 ), #186, .T. ) ;
#249 = PERSON_AND_ORGANIZATION_ROLE ( 'creator' ) ;
#250 = EDGE_LOOP ( 'NONE', ( #252 ) ) ;
#251 = COORDINATED_UNIVERSAL_TIME_OFFSET ( 1, 0, .AHEAD. ) ;
#252 = ORIENTED_EDGE ( 'NONE', *, *, #11, .F. ) ;
#253 = LOCAL_TIME ( 8, 16, 28.00000000000000000, #131 ) ;
#254 = PLANE ( 'NONE',  #167 ) ;
#255 = CYLINDRICAL_SURFACE ( 'NONE', #156, 1.274999999999998801 ) ;
#256 = FACE_OUTER_BOUND ( 'NONE', #10, .T. ) ;
#257 = COORDINATED_UNIVERSAL_TIME_OFFSET ( 1, 0, .AHEAD. ) ;
#258 = CARTESIAN_POINT ( 'NONE',  ( 8.849961221477469775E-14, -3.104148534859897544E-15, 25.34729635533384595 ) ) ;
#259 = DIRECTION ( 'NONE',  ( 0.0000000000000000000, -1.000000000000000000, 0.0000000000000000000 ) ) ;
#260 = DIRECTION ( 'NONE',  ( 0.0000000000000000000, 1.000000000000000000, 0.0000000000000000000 ) ) ;
#261 = CIRCLE ( 'NONE', #300, 1.274999999999998135 ) ;
#262 = DIRECTION ( 'NONE',  ( 4.275831445896959482E-31, 1.000000000000000000, 1.224646799147353454E-16 ) ) ;
#263 = CARTESIAN_POINT ( 'NONE',  ( 2.119329172677781757E-13, 1.499999999999995559, 60.69999999999999574 ) ) ;
#264 = EDGE_CURVE ( 'NONE', #85, #85, #261, .T. ) ;
#265 = TOROIDAL_SURFACE ( 'NONE', #180, 3.274999999999999911, 2.000000000000000000 ) ;
#266 = PERSON_AND_ORGANIZATION ( #214, #41 ) ;
#267 = AXIS2_PLACEMENT_3D ( 'NONE', #217, #54, #262 ) ;
#268 = DATE_AND_TIME ( #12, #253 ) ;
#269 = CARTESIAN_POINT ( 'NONE',  ( 9.235322783731660292E-14, 1.499999999999992673, 26.45101573646585891 ) ) ;
#270 = EDGE_LOOP ( 'NONE', ( #43 ) ) ;
#271 = PERSON_AND_ORGANIZATION ( #214, #41 ) ;
#272 = DIRECTION ( 'NONE',  ( 0.0000000000000000000, 1.000000000000000000, 0.0000000000000000000 ) ) ;
#273 = CIRCLE ( 'NONE', #143, 1.499999999999996003 ) ;
#274 = MANIFOLD_SOLID_BREP ( 'Corps-Déplacer/Copier1[1]', #174 ) ;
#275 = CYLINDRICAL_SURFACE ( 'NONE', #291, 1.499999999999999334 ) ;
#276 = CIRCLE ( 'NONE', #29, 1.200000000000002842 ) ;
#277 = CARTESIAN_POINT ( 'NONE',  ( 8.728703347107833388E-14, -3.061616997868383831E-15, 25.00000000000000000 ) ) ;
#278 = DIRECTION ( 'NONE',  ( 4.275831445896960358E-31, 1.000000000000000000, 1.224646799147353454E-16 ) ) ;
#279 = CARTESIAN_POINT ( 'NONE',  ( 2.129803616694311221E-13, 1.199999999999995515, 61.00000000000000000 ) ) ;
#280 = DIRECTION ( 'NONE',  ( 3.491481338843133355E-15, -1.224646799147353454E-16, 1.000000000000000000 ) ) ;
#281 = FACE_OUTER_BOUND ( 'NONE', #223, .T. ) ;
#282 = DIRECTION ( 'NONE',  ( 0.0000000000000000000, 1.000000000000000000, 0.0000000000000000000 ) ) ;
#283 = CARTESIAN_POINT ( 'NONE',  ( 3.491481338843133355E-14, 1.484999999999998765, 10.00000000000000000 ) ) ;
#284 = ADVANCED_FACE ( 'NONE', ( #147, #78 ), #211, .T. ) ;
#285 = APPLICATION_PROTOCOL_DEFINITION ( 'international standard', 'config_control_design', 1994, #75 ) ;
#286 = CIRCLE ( 'NONE', #149, 1.274999999999999689 ) ;
#287 = ORIENTED_EDGE ( 'NONE', *, *, #21, .F. ) ;
#288 =( NAMED_UNIT ( * ) PLANE_ANGLE_UNIT ( ) SI_UNIT ( $, .RADIAN. ) );
#289 = PERSON_AND_ORGANIZATION_ROLE ( 'design_supplier' ) ;
#290 = CLOSED_SHELL ( 'NONE', ( #62, #284, #200, #3 ) ) ;
#291 = AXIS2_PLACEMENT_3D ( 'NONE', #178, #205, #278 ) ;
#292 = ORIENTED_EDGE ( 'NONE', *, *, #264, .T. ) ;
#293 = FACE_OUTER_BOUND ( 'NONE', #113, .T. ) ;
#294 = CC_DESIGN_PERSON_AND_ORGANIZATION_ASSIGNMENT ( #199, #32, ( #24 ) ) ;
#295 = ORIENTED_EDGE ( 'NONE', *, *, #264, .F. ) ;
#296 = SHAPE_DEFINITION_REPRESENTATION ( #206, #207 ) ;
#297 = ORIENTED_EDGE ( 'NONE', *, *, #126, .T. ) ;
#298 = ORIENTED_EDGE ( 'NONE', *, *, #82, .F. ) ;
#299 = AXIS2_PLACEMENT_3D ( 'NONE', #22, #280, #241 ) ;
#300 = AXIS2_PLACEMENT_3D ( 'NONE', #166, #303, #103 ) ;
#301 = CARTESIAN_POINT ( 'NONE',  ( -5.280651835682751560E-31, 1.852203331587397266E-32, -1.512438796946983409E-16 ) ) ;
#302 = PRODUCT_DEFINITION ( 'UNKNOWN', '', #24, #164 ) ;
#303 = DIRECTION ( 'NONE',  ( -3.491481338843133355E-15, 1.224646799147353454E-16, -1.000000000000000000 ) ) ;
ENDSEC;
END-ISO-10303-21;
