ISO-10303-21;
HEADER;
FILE_DESCRIPTION (( 'STEP AP203' ),
    '1' );
FILE_NAME ('200746.step',
    '2021-12-01T07:27:17',
    ( '' ),
    ( '' ),
    'SwSTEP 2.0',
    'SolidWorks 2019',
    '' );
FILE_SCHEMA (( 'CONFIG_CONTROL_DESIGN' ));
ENDSEC;

DATA;
#1 = ADVANCED_FACE ( 'NONE', ( #272 ), #59, .F. ) ;
#2 = CARTESIAN_POINT ( 'NONE',  ( 1.047444401652940007E-14, 1.874699728327313799E-33, 3.000000000000000000 ) ) ;
#3 = CALENDAR_DATE ( 2021, 1, 12 ) ;
#4 = EDGE_LOOP ( 'NONE', ( #120 ) ) ;
#5 = ADVANCED_FACE ( 'NONE', ( #187, #32 ), #29, .F. ) ;
#6 = CC_DESIGN_APPROVAL ( #23, ( #247 ) ) ;
#7 = CARTESIAN_POINT ( 'NONE',  ( 0.0000000000000000000, 0.0000000000000000000, 0.0000000000000000000 ) ) ;
#8 = CYLINDRICAL_SURFACE ( 'NONE', #185, 0.2499999999999997780 ) ;
#9 = CARTESIAN_POINT ( 'NONE',  ( 0.0000000000000000000, 0.0000000000000000000, 0.0000000000000000000 ) ) ;
#10 = DIRECTION ( 'NONE',  ( 0.0000000000000000000, 1.000000000000000000, 0.0000000000000000000 ) ) ;
#11 = LOCAL_TIME ( 8, 27, 17.00000000000000000, #283 ) ;
#12 = ADVANCED_FACE ( 'NONE', ( #149, #203 ), #90, .T. ) ;
#13 = CARTESIAN_POINT ( 'NONE',  ( 4.281980506698321250E-14, 1.499999999999995559, 12.26407960157424526 ) ) ;
#14 = CARTESIAN_POINT ( 'NONE',  ( 4.281980506698321250E-14, -1.501916582855624592E-15, 12.26407960157424526 ) ) ;
#15 = EDGE_CURVE ( 'NONE', #134, #134, #74, .T. ) ;
#16 = DIRECTION ( 'NONE',  ( -4.275831445896958607E-31, -1.000000000000000000, -1.224646799147353207E-16 ) ) ;
#17 = APPLICATION_PROTOCOL_DEFINITION ( 'international standard', 'config_control_design', 1994, #22 ) ;
#18 = CONICAL_SURFACE ( 'NONE', #256, 0.2499999999999992506, 0.5235987755982923764 ) ;
#19 = PERSON_AND_ORGANIZATION ( #158, #193 ) ;
#20 = ORIENTED_EDGE ( 'NONE', *, *, #213, .T. ) ;
#21 = PERSON_AND_ORGANIZATION ( #158, #193 ) ;
#22 = APPLICATION_CONTEXT ( 'configuration controlled 3d designs of mechanical parts and assemblies' ) ;
#23 = APPROVAL ( #201, 'UNSPECIFIED' ) ;
#24 = AXIS2_PLACEMENT_3D ( 'NONE', #241, #167, #106 ) ;
#25 = SHAPE_DEFINITION_REPRESENTATION ( #252, #237 ) ;
#26 = ORIENTED_EDGE ( 'NONE', *, *, #213, .F. ) ;
#27 = DIRECTION ( 'NONE',  ( 0.0000000000000000000, -1.000000000000000000, 0.0000000000000000000 ) ) ;
#28 = CARTESIAN_POINT ( 'NONE',  ( 1.326762908760390423E-13, -4.653657836759941941E-15, 38.00000000000000000 ) ) ;
#29 = TOROIDAL_SURFACE ( 'NONE', #196, 2.250000000000000000, 2.000000000000000000 ) ;
#30 = EDGE_LOOP ( 'NONE', ( #180 ) ) ;
#31 = CARTESIAN_POINT ( 'NONE',  ( 3.491481338843132862E-16, -1.224646799147352961E-17, 0.09999999999999997780 ) ) ;
#32 = FACE_OUTER_BOUND ( 'NONE', #103, .T. ) ;
#33 = EDGE_CURVE ( 'NONE', #60, #60, #129, .T. ) ;
#34 = DIRECTION ( 'NONE',  ( -3.491481338843133355E-15, 1.224646799147353207E-16, -1.000000000000000000 ) ) ;
#35 = CIRCLE ( 'NONE', #176, 0.2803844939755816279 ) ;
#36 = AXIS2_PLACEMENT_3D ( 'NONE', #9, #107, #81 ) ;
#37 = DIRECTION ( 'NONE',  ( -4.275831445896958607E-31, -1.000000000000000000, -1.224646799147353207E-16 ) ) ;
#38 = EDGE_CURVE ( 'NONE', #253, #253, #35, .T. ) ;
#39 = ORIENTED_EDGE ( 'NONE', *, *, #38, .F. ) ;
#40 = DESIGN_CONTEXT ( 'detailed design', #229, 'design' ) ;
#41 = AXIS2_PLACEMENT_3D ( 'NONE', #2, #275, #37 ) ;
#42 = ORIENTED_EDGE ( 'NONE', *, *, #33, .T. ) ;
#43 = ADVANCED_FACE ( 'NONE', ( #148 ), #48, .F. ) ;
#44 = ORIENTED_EDGE ( 'NONE', *, *, #68, .F. ) ;
#45 = APPROVAL_PERSON_ORGANIZATION ( #255, #23, #94 ) ;
#46 = CLOSED_SHELL ( 'NONE', ( #1, #99, #5, #141, #92, #12, #43 ) ) ;
#47 = AXIS2_PLACEMENT_3D ( 'NONE', #168, #205, #224 ) ;
#48 = PLANE ( 'NONE',  #47 ) ;
#49 = COORDINATED_UNIVERSAL_TIME_OFFSET ( 1, 0, .AHEAD. ) ;
#50 = EDGE_LOOP ( 'NONE', ( #115 ) ) ;
#51 = DIRECTION ( 'NONE',  ( 4.275831445896957731E-31, 1.000000000000000000, 1.224646799147353207E-16 ) ) ;
#52 = LOCAL_TIME ( 8, 27, 17.00000000000000000, #66 ) ;
#53 = DIRECTION ( 'NONE',  ( -3.491481338843133355E-15, 1.224646799147353207E-16, -1.000000000000000000 ) ) ;
#54 = CC_DESIGN_PERSON_AND_ORGANIZATION_ASSIGNMENT ( #95, #281, ( #247 ) ) ;
#55 = FACE_OUTER_BOUND ( 'NONE', #50, .T. ) ;
#56 = AXIS2_PLACEMENT_3D ( 'NONE', #269, #209, #27 ) ;
#57 = APPROVAL_STATUS ( 'not_yet_approved' ) ;
#58 =( LENGTH_UNIT ( ) NAMED_UNIT ( * ) SI_UNIT ( .MILLI., .METRE. ) );
#59 = PLANE ( 'NONE',  #41 ) ;
#60 = VERTEX_POINT ( 'NONE', #64 ) ;
#61 = DIRECTION ( 'NONE',  ( 0.0000000000000000000, 0.0000000000000000000, 1.000000000000000000 ) ) ;
#62 = CIRCLE ( 'NONE', #271, 1.499999999999996891 ) ;
#63 = AXIS2_PLACEMENT_3D ( 'NONE', #194, #273, #88 ) ;
#64 = CARTESIAN_POINT ( 'NONE',  ( 1.745740669421566993E-14, 0.2499999999999993616, 5.000000000000000888 ) ) ;
#65 = ADVANCED_FACE ( 'NONE', ( #206, #55 ), #18, .T. ) ;
#66 = COORDINATED_UNIVERSAL_TIME_OFFSET ( 1, 0, .AHEAD. ) ;
#67 = PERSON_AND_ORGANIZATION_ROLE ( 'creator' ) ;
#68 = EDGE_CURVE ( 'NONE', #84, #84, #166, .T. ) ;
#69 = PRODUCT_DEFINITION_FORMATION_WITH_SPECIFIED_SOURCE ( 'ANY', '', #156, .NOT_KNOWN. ) ;
#70 = DATE_AND_TIME ( #257, #102 ) ;
#71 = APPROVAL_ROLE ( '' ) ;
#72 = AXIS2_PLACEMENT_3D ( 'NONE', #7, #34, #128 ) ;
#73 = CARTESIAN_POINT ( 'NONE',  ( 1.866998543791202749E-14, -6.548549365651904395E-16, 5.347296355333846840 ) ) ;
#74 = CIRCLE ( 'NONE', #226, 0.2499999999999996669 ) ;
#75 = CC_DESIGN_DATE_AND_TIME_ASSIGNMENT ( #105, #145, ( #247 ) ) ;
#76 = CARTESIAN_POINT ( 'NONE',  ( 1.047444401652940007E-14, 1.874699728327313799E-33, 3.000000000000000000 ) ) ;
#77 = EDGE_LOOP ( 'NONE', ( #42 ) ) ;
#78 = DIRECTION ( 'NONE',  ( 0.0000000000000000000, 1.000000000000000000, 0.0000000000000000000 ) ) ;
#79 = CC_DESIGN_DATE_AND_TIME_ASSIGNMENT ( #70, #151, ( #182 ) ) ;
#80 = AXIS2_PLACEMENT_3D ( 'NONE', #192, #83, #228 ) ;
#81 = DIRECTION ( 'NONE',  ( 4.275831445896958607E-31, 1.000000000000000000, 1.224646799147352961E-16 ) ) ;
#82 = FACE_OUTER_BOUND ( 'NONE', #116, .T. ) ;
#83 = DIRECTION ( 'NONE',  ( -3.491481338843133355E-15, 1.224646799147353207E-16, -1.000000000000000000 ) ) ;
#84 = VERTEX_POINT ( 'NONE', #169 ) ;
#85 = CIRCLE ( 'NONE', #63, 1.500000000000003331 ) ;
#86 = DIRECTION ( 'NONE',  ( -3.491481338843133355E-15, 1.224646799147353207E-16, -1.000000000000000000 ) ) ;
#87 = APPROVAL ( #57, 'UNSPECIFIED' ) ;
#88 = DIRECTION ( 'NONE',  ( 0.0000000000000000000, 1.000000000000000000, 0.0000000000000000000 ) ) ;
#89 = ADVANCED_FACE ( 'NONE', ( #125, #243 ), #262, .T. ) ;
#90 = CONICAL_SURFACE ( 'NONE', #278, 1.200000000000003286, 0.7853981633974453924 ) ;
#91 = UNCERTAINTY_MEASURE_WITH_UNIT (LENGTH_MEASURE( 1.000000000000000082E-05 ), #58, 'distance_accuracy_value', 'NONE');
#92 = ADVANCED_FACE ( 'NONE', ( #82, #162 ), #108, .T. ) ;
#93 = PERSON_AND_ORGANIZATION_ROLE ( 'creator' ) ;
#94 = APPROVAL_ROLE ( '' ) ;
#95 = PERSON_AND_ORGANIZATION ( #158, #193 ) ;
#96 = APPROVAL_ROLE ( '' ) ;
#97 = MANIFOLD_SOLID_BREP ( 'Corps-Déplacer/Copier1[2]', #208 ) ;
#98 = MANIFOLD_SOLID_BREP ( 'Corps-Déplacer/Copier1[1]', #46 ) ;
#99 = ADVANCED_FACE ( 'NONE', ( #204, #123 ), #8, .T. ) ;
#100 = DIRECTION ( 'NONE',  ( 0.0000000000000000000, 1.000000000000000000, 0.0000000000000000000 ) ) ;
#101 = CALENDAR_DATE ( 2021, 1, 12 ) ;
#102 = LOCAL_TIME ( 8, 27, 17.00000000000000000, #179 ) ;
#103 = EDGE_LOOP ( 'NONE', ( #263 ) ) ;
#104 = CARTESIAN_POINT ( 'NONE',  ( 1.745740669421566993E-14, -6.123233995736767268E-16, 5.000000000000000888 ) ) ;
#105 = DATE_AND_TIME ( #101, #268 ) ;
#106 = DIRECTION ( 'NONE',  ( 4.275831445896958607E-31, 1.000000000000000000, 1.224646799147353207E-16 ) ) ;
#107 = DIRECTION ( 'NONE',  ( -3.491481338843133355E-15, 1.224646799147353207E-16, -1.000000000000000000 ) ) ;
#108 = CYLINDRICAL_SURFACE ( 'NONE', #72, 1.500000000000000000 ) ;
#109 = PERSON_AND_ORGANIZATION_ROLE ( 'design_owner' ) ;
#110 = DIRECTION ( 'NONE',  ( 0.0000000000000000000, 1.000000000000000000, 0.0000000000000000000 ) ) ;
#111 = DIRECTION ( 'NONE',  ( -3.491481338843133355E-15, 1.224646799147353207E-16, -1.000000000000000000 ) ) ;
#112 =( NAMED_UNIT ( * ) PLANE_ANGLE_UNIT ( ) SI_UNIT ( $, .RADIAN. ) );
#113 = EDGE_CURVE ( 'NONE', #114, #114, #207, .T. ) ;
#114 = VERTEX_POINT ( 'NONE', #195 ) ;
#115 = ORIENTED_EDGE ( 'NONE', *, *, #68, .T. ) ;
#116 = EDGE_LOOP ( 'NONE', ( #265 ) ) ;
#117 = CC_DESIGN_APPROVAL ( #219, ( #182 ) ) ;
#118 = PERSON_AND_ORGANIZATION_ROLE ( 'design_supplier' ) ;
#119 = DATE_AND_TIME ( #184, #11 ) ;
#120 = ORIENTED_EDGE ( 'NONE', *, *, #159, .F. ) ;
#121 = FACE_OUTER_BOUND ( 'NONE', #221, .T. ) ;
#122 = EDGE_LOOP ( 'NONE', ( #178 ) ) ;
#123 = FACE_OUTER_BOUND ( 'NONE', #77, .T. ) ;
#124 = ORIENTED_EDGE ( 'NONE', *, *, #113, .F. ) ;
#125 = FACE_OUTER_BOUND ( 'NONE', #217, .T. ) ;
#126 = DIRECTION ( 'NONE',  ( -3.491481338843133355E-15, 1.224646799147353207E-16, -1.000000000000000000 ) ) ;
#127 = CC_DESIGN_APPROVAL ( #87, ( #69 ) ) ;
#128 = DIRECTION ( 'NONE',  ( 4.275831445896959482E-31, 1.000000000000000000, 1.224646799147353207E-16 ) ) ;
#129 = CIRCLE ( 'NONE', #240, 0.2499999999999999445 ) ;
#130 = CC_DESIGN_PERSON_AND_ORGANIZATION_ASSIGNMENT ( #21, #118, ( #69 ) ) ;
#131 = CARTESIAN_POINT ( 'NONE',  ( 0.0000000000000000000, 0.0000000000000000000, 0.0000000000000000000 ) ) ;
#132 = CARTESIAN_POINT ( 'NONE',  ( 1.047444401652940007E-14, 0.2499999999999993061, 3.000000000000000000 ) ) ;
#133 = DIRECTION ( 'NONE',  ( 1.000000000000000000, 0.0000000000000000000, 0.0000000000000000000 ) ) ;
#134 = VERTEX_POINT ( 'NONE', #154 ) ;
#135 = PERSON_AND_ORGANIZATION ( #158, #193 ) ;
#136 = EDGE_LOOP ( 'NONE', ( #20 ) ) ;
#137 = CIRCLE ( 'NONE', #80, 1.200000000000003286 ) ;
#138 = EDGE_LOOP ( 'NONE', ( #280 ) ) ;
#139 = APPROVAL_DATE_TIME ( #119, #87 ) ;
#140 = EDGE_LOOP ( 'NONE', ( #235 ) ) ;
#141 = ADVANCED_FACE ( 'NONE', ( #244, #223 ), #238, .T. ) ;
#142 = AXIS2_PLACEMENT_3D ( 'NONE', #249, #111, #172 ) ;
#143 = ADVANCED_FACE ( 'NONE', ( #121 ), #264, .T. ) ;
#144 = DIRECTION ( 'NONE',  ( -3.491481338843133355E-15, 1.224646799147353207E-16, -1.000000000000000000 ) ) ;
#145 = DATE_TIME_ROLE ( 'classification_date' ) ;
#146 = EDGE_LOOP ( 'NONE', ( #26 ) ) ;
#147 = DIRECTION ( 'NONE',  ( 3.491481338843133355E-15, -1.224646799147353207E-16, 1.000000000000000000 ) ) ;
#148 = FACE_OUTER_BOUND ( 'NONE', #4, .T. ) ;
#149 = FACE_OUTER_BOUND ( 'NONE', #146, .T. ) ;
#150 = DIRECTION ( 'NONE',  ( 3.491481338843133355E-15, -1.224646799147353207E-16, 1.000000000000000000 ) ) ;
#151 = DATE_TIME_ROLE ( 'creation_date' ) ;
#152 = CARTESIAN_POINT ( 'NONE',  ( 1.326762908760390423E-13, 1.199999999999998845, 38.00000000000000000 ) ) ;
#153 = VERTEX_POINT ( 'NONE', #132 ) ;
#154 = CARTESIAN_POINT ( 'NONE',  ( 1.047444401652940007E-14, 0.2499999999999993061, 3.000000000000000000 ) ) ;
#155 = CC_DESIGN_SECURITY_CLASSIFICATION ( #247, ( #69 ) ) ;
#156 = PRODUCT ( '200746', '200746', '', ( #276 ) ) ;
#157 = AXIS2_PLACEMENT_3D ( 'NONE', #131, #61, #133 ) ;
#158 = PERSON ( 'UNSPECIFIED', 'UNSPECIFIED', 'UNSPECIFIED', ('UNSPECIFIED'), ('UNSPECIFIED'), ('UNSPECIFIED') ) ;
#159 = EDGE_CURVE ( 'NONE', #171, #171, #137, .T. ) ;
#160 = DATE_AND_TIME ( #3, #170 ) ;
#161 = APPROVAL_PERSON_ORGANIZATION ( #248, #87, #71 ) ;
#162 = FACE_OUTER_BOUND ( 'NONE', #136, .T. ) ;
#163 = CARTESIAN_POINT ( 'NONE',  ( 1.047444401652940007E-14, -3.673940397442059868E-16, 3.000000000000000000 ) ) ;
#164 = ORIENTED_EDGE ( 'NONE', *, *, #189, .T. ) ;
#165 = DIRECTION ( 'NONE',  ( 3.851859888774483092E-31, 1.000000000000000000, 1.084202172485507639E-16 ) ) ;
#166 = CIRCLE ( 'NONE', #282, 0.2499999999999992506 ) ;
#167 = DIRECTION ( 'NONE',  ( -3.491481338843133355E-15, 1.224646799147353207E-16, -1.000000000000000000 ) ) ;
#168 = CARTESIAN_POINT ( 'NONE',  ( 1.326762908760390423E-13, 8.998558695971103225E-33, 38.00000000000000000 ) ) ;
#169 = CARTESIAN_POINT ( 'NONE',  ( 3.491481338843133848E-16, 0.2499999999999992506, 0.1000000000000000056 ) ) ;
#170 = LOCAL_TIME ( 8, 27, 17.00000000000000000, #200 ) ;
#171 = VERTEX_POINT ( 'NONE', #152 ) ;
#172 = DIRECTION ( 'NONE',  ( 0.0000000000000000000, 1.000000000000000000, 0.0000000000000000000 ) ) ;
#173 = VERTEX_POINT ( 'NONE', #13 ) ;
#174 =( GEOMETRIC_REPRESENTATION_CONTEXT ( 3 ) GLOBAL_UNCERTAINTY_ASSIGNED_CONTEXT ( ( #91 ) ) GLOBAL_UNIT_ASSIGNED_CONTEXT ( ( #58, #112, #211 ) ) REPRESENTATION_CONTEXT ( 'NONE', 'WORKASPACE' ) );
#175 = CARTESIAN_POINT ( 'NONE',  ( -6.476382872201114071E-32, 2.271609321309385811E-33, -1.854909777162663261E-17 ) ) ;
#176 = AXIS2_PLACEMENT_3D ( 'NONE', #73, #267, #10 ) ;
#177 = CC_DESIGN_PERSON_AND_ORGANIZATION_ASSIGNMENT ( #135, #93, ( #182 ) ) ;
#178 = ORIENTED_EDGE ( 'NONE', *, *, #33, .F. ) ;
#179 = COORDINATED_UNIVERSAL_TIME_OFFSET ( 1, 0, .AHEAD. ) ;
#180 = ORIENTED_EDGE ( 'NONE', *, *, #232, .F. ) ;
#181 = APPROVAL_PERSON_ORGANIZATION ( #19, #219, #96 ) ;
#182 = PRODUCT_DEFINITION ( 'UNKNOWN', '', #69, #40 ) ;
#183 = DIRECTION ( 'NONE',  ( -3.851859888774483092E-31, -1.000000000000000000, -1.084202172485507639E-16 ) ) ;
#184 = CALENDAR_DATE ( 2021, 1, 12 ) ;
#185 = AXIS2_PLACEMENT_3D ( 'NONE', #190, #186, #51 ) ;
#186 = DIRECTION ( 'NONE',  ( -3.491481338843133355E-15, 1.224646799147353207E-16, -1.000000000000000000 ) ) ;
#187 = FACE_OUTER_BOUND ( 'NONE', #122, .T. ) ;
#188 = DIRECTION ( 'NONE',  ( 4.400797537206414865E-31, 1.000000000000000000, 1.224646799147353207E-16 ) ) ;
#189 = EDGE_CURVE ( 'NONE', #173, #173, #62, .T. ) ;
#190 = CARTESIAN_POINT ( 'NONE',  ( 0.0000000000000000000, 0.0000000000000000000, 0.0000000000000000000 ) ) ;
#191 = APPLICATION_PROTOCOL_DEFINITION ( 'international standard', 'config_control_design', 1994, #229 ) ;
#192 = CARTESIAN_POINT ( 'NONE',  ( 1.326762908760390423E-13, -4.653657836759941941E-15, 38.00000000000000000 ) ) ;
#193 = ORGANIZATION ( 'UNSPECIFIED', 'UNSPECIFIED', '' ) ;
#194 = CARTESIAN_POINT ( 'NONE',  ( 1.316288464743861212E-13, -4.616918432785521081E-15, 37.69999999999999574 ) ) ;
#195 = CARTESIAN_POINT ( 'NONE',  ( -4.731839565957902296E-32, 0.1922649730810375157, -1.355252715606880543E-17 ) ) ;
#196 = AXIS2_PLACEMENT_3D ( 'NONE', #266, #126, #188 ) ;
#197 = DATE_AND_TIME ( #216, #52 ) ;
#198 = EDGE_LOOP ( 'NONE', ( #124 ) ) ;
#199 = EDGE_LOOP ( 'NONE', ( #202 ) ) ;
#200 = COORDINATED_UNIVERSAL_TIME_OFFSET ( 1, 0, .AHEAD. ) ;
#201 = APPROVAL_STATUS ( 'not_yet_approved' ) ;
#202 = ORIENTED_EDGE ( 'NONE', *, *, #113, .T. ) ;
#203 = FACE_BOUND ( 'NONE', #138, .T. ) ;
#204 = FACE_OUTER_BOUND ( 'NONE', #30, .T. ) ;
#205 = DIRECTION ( 'NONE',  ( -3.491481338843133355E-15, 1.224646799147353207E-16, -1.000000000000000000 ) ) ;
#206 = FACE_BOUND ( 'NONE', #198, .T. ) ;
#207 = CIRCLE ( 'NONE', #24, 0.1922649730810375157 ) ;
#208 = CLOSED_SHELL ( 'NONE', ( #239, #65, #89, #143 ) ) ;
#209 = DIRECTION ( 'NONE',  ( 3.491481338843133355E-15, -1.224646799147353207E-16, 1.000000000000000000 ) ) ;
#210 = DIRECTION ( 'NONE',  ( 3.491481338843133355E-15, -1.224646799147353207E-16, 1.000000000000000000 ) ) ;
#211 =( NAMED_UNIT ( * ) SI_UNIT ( $, .STERADIAN. ) SOLID_ANGLE_UNIT ( ) );
#212 = VERTEX_POINT ( 'NONE', #231 ) ;
#213 = EDGE_CURVE ( 'NONE', #212, #212, #85, .T. ) ;
#214 = AXIS2_PLACEMENT_3D ( 'NONE', #175, #210, #270 ) ;
#215 = EDGE_LOOP ( 'NONE', ( #164 ) ) ;
#216 = CALENDAR_DATE ( 2021, 1, 12 ) ;
#217 = EDGE_LOOP ( 'NONE', ( #44 ) ) ;
#218 = ORIENTED_EDGE ( 'NONE', *, *, #15, .F. ) ;
#219 = APPROVAL ( #277, 'UNSPECIFIED' ) ;
#220 = DIRECTION ( 'NONE',  ( -3.491481338843133355E-15, 1.224646799147353207E-16, -1.000000000000000000 ) ) ;
#221 = EDGE_LOOP ( 'NONE', ( #218 ) ) ;
#222 = DIRECTION ( 'NONE',  ( -3.491481338843133355E-15, 1.224646799147353207E-16, -1.000000000000000000 ) ) ;
#223 = FACE_OUTER_BOUND ( 'NONE', #215, .T. ) ;
#224 = DIRECTION ( 'NONE',  ( 4.275831445896958607E-31, 1.000000000000000000, 1.224646799147353207E-16 ) ) ;
#225 = AXIS2_PLACEMENT_3D ( 'NONE', #76, #147, #16 ) ;
#226 = AXIS2_PLACEMENT_3D ( 'NONE', #163, #144, #78 ) ;
#227 = CARTESIAN_POINT ( 'NONE',  ( 1.866998543791202749E-14, 0.2803844939755809618, 5.347296355333846840 ) ) ;
#228 = DIRECTION ( 'NONE',  ( 0.0000000000000000000, 1.000000000000000000, 0.0000000000000000000 ) ) ;
#229 = APPLICATION_CONTEXT ( 'configuration controlled 3d designs of mechanical parts and assemblies' ) ;
#230 = CIRCLE ( 'NONE', #142, 0.2499999999999996669 ) ;
#231 = CARTESIAN_POINT ( 'NONE',  ( 1.316288464743861212E-13, 1.499999999999998668, 37.69999999999999574 ) ) ;
#232 = EDGE_CURVE ( 'NONE', #153, #153, #230, .T. ) ;
#233 = PERSON_AND_ORGANIZATION ( #158, #193 ) ;
#234 = EDGE_LOOP ( 'NONE', ( #39 ) ) ;
#235 = ORIENTED_EDGE ( 'NONE', *, *, #15, .T. ) ;
#236 = APPROVAL_DATE_TIME ( #160, #23 ) ;
#237 = ADVANCED_BREP_SHAPE_REPRESENTATION ( '200746', ( #98, #97, #157 ), #174 ) ;
#238 = CONICAL_SURFACE ( 'NONE', #56, 1.499999999999996891, 0.1745329251994260644 ) ;
#239 = ADVANCED_FACE ( 'NONE', ( #246 ), #250, .F. ) ;
#240 = AXIS2_PLACEMENT_3D ( 'NONE', #104, #222, #100 ) ;
#241 = CARTESIAN_POINT ( 'NONE',  ( -1.295276574440222814E-31, 4.543218642618771622E-33, -3.709819554325326521E-17 ) ) ;
#242 = CARTESIAN_POINT ( 'NONE',  ( 3.491481338843132862E-16, -1.224646799147352961E-17, 0.09999999999999997780 ) ) ;
#243 = FACE_OUTER_BOUND ( 'NONE', #140, .T. ) ;
#244 = FACE_BOUND ( 'NONE', #234, .T. ) ;
#245 = DIRECTION ( 'NONE',  ( 0.0000000000000000000, 1.000000000000000000, 0.0000000000000000000 ) ) ;
#246 = FACE_OUTER_BOUND ( 'NONE', #199, .T. ) ;
#247 = SECURITY_CLASSIFICATION ( '', '', #261 ) ;
#248 = PERSON_AND_ORGANIZATION ( #158, #193 ) ;
#249 = CARTESIAN_POINT ( 'NONE',  ( 1.047444401652940007E-14, -3.673940397442059868E-16, 3.000000000000000000 ) ) ;
#250 = PLANE ( 'NONE',  #214 ) ;
#251 = PRODUCT_RELATED_PRODUCT_CATEGORY ( 'detail', '', ( #156 ) ) ;
#252 = PRODUCT_DEFINITION_SHAPE ( 'NONE', 'NONE',  #182 ) ;
#253 = VERTEX_POINT ( 'NONE', #227 ) ;
#254 = ORIENTED_EDGE ( 'NONE', *, *, #232, .T. ) ;
#255 = PERSON_AND_ORGANIZATION ( #158, #193 ) ;
#256 = AXIS2_PLACEMENT_3D ( 'NONE', #31, #150, #183 ) ;
#257 = CALENDAR_DATE ( 2021, 1, 12 ) ;
#258 = PERSON_AND_ORGANIZATION ( #158, #193 ) ;
#259 = CC_DESIGN_PERSON_AND_ORGANIZATION_ASSIGNMENT ( #258, #67, ( #69 ) ) ;
#260 = APPROVAL_DATE_TIME ( #197, #219 ) ;
#261 = SECURITY_CLASSIFICATION_LEVEL ( 'unclassified' ) ;
#262 = CYLINDRICAL_SURFACE ( 'NONE', #36, 0.2499999999999994726 ) ;
#263 = ORIENTED_EDGE ( 'NONE', *, *, #38, .T. ) ;
#264 = PLANE ( 'NONE',  #225 ) ;
#265 = ORIENTED_EDGE ( 'NONE', *, *, #189, .F. ) ;
#266 = CARTESIAN_POINT ( 'NONE',  ( 1.745740669421566678E-14, -4.336808689942017736E-16, 5.000000000000000000 ) ) ;
#267 = DIRECTION ( 'NONE',  ( -3.491481338843133355E-15, 1.224646799147353207E-16, -1.000000000000000000 ) ) ;
#268 = LOCAL_TIME ( 8, 27, 17.00000000000000000, #49 ) ;
#269 = CARTESIAN_POINT ( 'NONE',  ( 4.281980506698321250E-14, -1.501916582855624592E-15, 12.26407960157424526 ) ) ;
#270 = DIRECTION ( 'NONE',  ( -4.275831445896958607E-31, -1.000000000000000000, -1.224646799147353207E-16 ) ) ;
#271 = AXIS2_PLACEMENT_3D ( 'NONE', #14, #86, #110 ) ;
#272 = FACE_OUTER_BOUND ( 'NONE', #279, .T. ) ;
#273 = DIRECTION ( 'NONE',  ( -3.491481338843133355E-15, 1.224646799147353207E-16, -1.000000000000000000 ) ) ;
#274 = CC_DESIGN_PERSON_AND_ORGANIZATION_ASSIGNMENT ( #233, #109, ( #156 ) ) ;
#275 = DIRECTION ( 'NONE',  ( 3.491481338843133355E-15, -1.224646799147353207E-16, 1.000000000000000000 ) ) ;
#276 = MECHANICAL_CONTEXT ( 'NONE', #22, 'mechanical' ) ;
#277 = APPROVAL_STATUS ( 'not_yet_approved' ) ;
#278 = AXIS2_PLACEMENT_3D ( 'NONE', #28, #53, #245 ) ;
#279 = EDGE_LOOP ( 'NONE', ( #254 ) ) ;
#280 = ORIENTED_EDGE ( 'NONE', *, *, #159, .T. ) ;
#281 = PERSON_AND_ORGANIZATION_ROLE ( 'classification_officer' ) ;
#282 = AXIS2_PLACEMENT_3D ( 'NONE', #242, #220, #165 ) ;
#283 = COORDINATED_UNIVERSAL_TIME_OFFSET ( 1, 0, .AHEAD. ) ;
ENDSEC;
END-ISO-10303-21;
