ISO-10303-21;
HEADER;
FILE_DESCRIPTION (( 'STEP AP203' ),
    '1' );
FILE_NAME ('200745.step',
    '2021-12-01T07:27:16',
    ( '' ),
    ( '' ),
    'SwSTEP 2.0',
    'SolidWorks 2019',
    '' );
FILE_SCHEMA (( 'CONFIG_CONTROL_DESIGN' ));
ENDSEC;

DATA;
#1 = CARTESIAN_POINT ( 'NONE',  ( 3.491481338843133355E-16, -1.224646799147353115E-17, 0.09999999999999999167 ) ) ;
#2 = DIRECTION ( 'NONE',  ( -4.275831445896958607E-31, -1.000000000000000000, -1.224646799147353207E-16 ) ) ;
#3 = CIRCLE ( 'NONE', #229, 0.2549999999999998934 ) ;
#4 = CC_DESIGN_APPROVAL ( #179, ( #66 ) ) ;
#5 = PLANE ( 'NONE',  #142 ) ;
#6 = AXIS2_PLACEMENT_3D ( 'NONE', #211, #192, #35 ) ;
#7 = ADVANCED_FACE ( 'NONE', ( #258, #168 ), #148, .T. ) ;
#8 = AXIS2_PLACEMENT_3D ( 'NONE', #240, #54, #81 ) ;
#9 = MECHANICAL_CONTEXT ( 'NONE', #96, 'mechanical' ) ;
#10 = ORIENTED_EDGE ( 'NONE', *, *, #169, .T. ) ;
#11 = UNCERTAINTY_MEASURE_WITH_UNIT (LENGTH_MEASURE( 1.000000000000000082E-05 ), #41, 'distance_accuracy_value', 'NONE');
#12 = CLOSED_SHELL ( 'NONE', ( #231, #112, #56, #147 ) ) ;
#13 = APPLICATION_PROTOCOL_DEFINITION ( 'international standard', 'config_control_design', 1994, #176 ) ;
#14 = EDGE_LOOP ( 'NONE', ( #90 ) ) ;
#15 = ORIENTED_EDGE ( 'NONE', *, *, #105, .F. ) ;
#16 = DATE_AND_TIME ( #141, #175 ) ;
#17 = EDGE_LOOP ( 'NONE', ( #49 ) ) ;
#18 = DIRECTION ( 'NONE',  ( 4.275831445896958607E-31, 1.000000000000000000, 1.224646799147353454E-16 ) ) ;
#19 = AXIS2_PLACEMENT_3D ( 'NONE', #189, #73, #280 ) ;
#20 = EDGE_CURVE ( 'NONE', #57, #57, #219, .T. ) ;
#21 = DIRECTION ( 'NONE',  ( -3.491481338843133355E-15, 1.224646799147353207E-16, -1.000000000000000000 ) ) ;
#22 = ORGANIZATION ( 'UNSPECIFIED', 'UNSPECIFIED', '' ) ;
#23 = DIRECTION ( 'NONE',  ( 0.0000000000000000000, 1.000000000000000000, 0.0000000000000000000 ) ) ;
#24 = DIRECTION ( 'NONE',  ( -3.491481338843133355E-15, 1.224646799147353207E-16, -1.000000000000000000 ) ) ;
#25 = CC_DESIGN_PERSON_AND_ORGANIZATION_ASSIGNMENT ( #31, #207, ( #48 ) ) ;
#26 = TOROIDAL_SURFACE ( 'NONE', #6, 2.254999999999999893, 2.000000000000000000 ) ;
#27 = PLANE ( 'NONE',  #19 ) ;
#28 = CARTESIAN_POINT ( 'NONE',  ( 1.396592535537253342E-14, 1.912193722893859144E-33, 4.000000000000000000 ) ) ;
#29 = FACE_OUTER_BOUND ( 'NONE', #17, .T. ) ;
#30 = CARTESIAN_POINT ( 'NONE',  ( -8.949198441327490159E-32, 3.138956265977794599E-33, -2.563152304944787294E-17 ) ) ;
#31 = PERSON_AND_ORGANIZATION ( #243, #22 ) ;
#32 = DIRECTION ( 'NONE',  ( 1.000000000000000000, 0.0000000000000000000, 0.0000000000000000000 ) ) ;
#33 = PERSON_AND_ORGANIZATION ( #243, #22 ) ;
#34 = CC_DESIGN_PERSON_AND_ORGANIZATION_ASSIGNMENT ( #33, #184, ( #66 ) ) ;
#35 = DIRECTION ( 'NONE',  ( 4.400650691035664440E-31, 1.000000000000000000, 1.224646799147353207E-16 ) ) ;
#36 = FACE_OUTER_BOUND ( 'NONE', #250, .T. ) ;
#37 = CARTESIAN_POINT ( 'NONE',  ( -1.789839688265498032E-31, 6.277912531955589197E-33, -5.126304609889574588E-17 ) ) ;
#38 = DIRECTION ( 'NONE',  ( -3.491481338843133355E-15, 1.224646799147353207E-16, -1.000000000000000000 ) ) ;
#39 = VERTEX_POINT ( 'NONE', #265 ) ;
#40 =( NAMED_UNIT ( * ) PLANE_ANGLE_UNIT ( ) SI_UNIT ( $, .RADIAN. ) );
#41 =( LENGTH_UNIT ( ) NAMED_UNIT ( * ) SI_UNIT ( .MILLI., .METRE. ) );
#42 = EDGE_CURVE ( 'NONE', #268, #268, #88, .T. ) ;
#43 = VERTEX_POINT ( 'NONE', #61 ) ;
#44 = COORDINATED_UNIVERSAL_TIME_OFFSET ( 1, 0, .AHEAD. ) ;
#45 = APPROVAL_ROLE ( '' ) ;
#46 = APPROVAL_DATE_TIME ( #86, #179 ) ;
#47 = EDGE_LOOP ( 'NONE', ( #248 ) ) ;
#48 = PRODUCT_DEFINITION_FORMATION_WITH_SPECIFIED_SOURCE ( 'ANY', '', #166, .NOT_KNOWN. ) ;
#49 = ORIENTED_EDGE ( 'NONE', *, *, #238, .T. ) ;
#50 = DIRECTION ( 'NONE',  ( -3.491481338843133355E-15, 1.224646799147353207E-16, -1.000000000000000000 ) ) ;
#51 = CARTESIAN_POINT ( 'NONE',  ( 1.396592535537253342E-14, -4.898587196589412829E-16, 4.000000000000000000 ) ) ;
#52 = DIRECTION ( 'NONE',  ( 3.491481338843133355E-15, -1.224646799147353207E-16, 1.000000000000000000 ) ) ;
#53 = EDGE_LOOP ( 'NONE', ( #225 ) ) ;
#54 = DIRECTION ( 'NONE',  ( 3.491481338843133355E-15, -1.224646799147353207E-16, 1.000000000000000000 ) ) ;
#55 = CARTESIAN_POINT ( 'NONE',  ( 1.396592535537253342E-14, 0.2549999999999992273, 4.000000000000000000 ) ) ;
#56 = ADVANCED_FACE ( 'NONE', ( #118, #215 ), #144, .T. ) ;
#57 = VERTEX_POINT ( 'NONE', #130 ) ;
#58 = AXIS2_PLACEMENT_3D ( 'NONE', #209, #38, #120 ) ;
#59 = EDGE_CURVE ( 'NONE', #222, #222, #133, .T. ) ;
#60 = CIRCLE ( 'NONE', #178, 1.500000000000003331 ) ;
#61 = CARTESIAN_POINT ( 'NONE',  ( 1.396592535537253342E-14, 0.2549999999999992273, 4.000000000000000000 ) ) ;
#62 = APPROVAL_DATE_TIME ( #134, #247 ) ;
#63 = EDGE_LOOP ( 'NONE', ( #162 ) ) ;
#64 = PERSON_AND_ORGANIZATION ( #243, #22 ) ;
#65 = ORIENTED_EDGE ( 'NONE', *, *, #69, .F. ) ;
#66 = SECURITY_CLASSIFICATION ( '', '', #275 ) ;
#67 = PERSON_AND_ORGANIZATION ( #243, #22 ) ;
#68 = PRODUCT_DEFINITION_SHAPE ( 'NONE', 'NONE',  #104 ) ;
#69 = EDGE_CURVE ( 'NONE', #172, #172, #60, .T. ) ;
#70 = FACE_OUTER_BOUND ( 'NONE', #53, .T. ) ;
#71 = DIRECTION ( 'NONE',  ( -3.491481338843133355E-15, 1.224646799147353207E-16, -1.000000000000000000 ) ) ;
#72 = CLOSED_SHELL ( 'NONE', ( #217, #7, #132, #200, #241, #188, #93 ) ) ;
#73 = DIRECTION ( 'NONE',  ( -3.491481338843133355E-15, 1.224646799147353207E-16, -1.000000000000000000 ) ) ;
#74 = CARTESIAN_POINT ( 'NONE',  ( 1.326762908760390423E-13, -4.653657836759941941E-15, 38.00000000000000000 ) ) ;
#75 = DIRECTION ( 'NONE',  ( 3.776333224288708201E-31, 1.000000000000000000, 1.062943306358340622E-16 ) ) ;
#76 = APPROVAL ( #89, 'UNSPECIFIED' ) ;
#77 = VERTEX_POINT ( 'NONE', #237 ) ;
#78 = AXIS2_PLACEMENT_3D ( 'NONE', #164, #52, #146 ) ;
#79 = DIRECTION ( 'NONE',  ( 0.0000000000000000000, 1.000000000000000000, 0.0000000000000000000 ) ) ;
#80 = AXIS2_PLACEMENT_3D ( 'NONE', #199, #177, #32 ) ;
#81 = DIRECTION ( 'NONE',  ( 0.0000000000000000000, -1.000000000000000000, 0.0000000000000000000 ) ) ;
#82 = CC_DESIGN_PERSON_AND_ORGANIZATION_ASSIGNMENT ( #67, #136, ( #48 ) ) ;
#83 = CARTESIAN_POINT ( 'NONE',  ( 1.316288464743861212E-13, 1.499999999999998668, 37.69999999999999574 ) ) ;
#84 = DIRECTION ( 'NONE',  ( 3.491481338843133355E-15, -1.224646799147353207E-16, 1.000000000000000000 ) ) ;
#85 = APPROVAL_PERSON_ORGANIZATION ( #64, #76, #45 ) ;
#86 = DATE_AND_TIME ( #202, #203 ) ;
#87 = PERSON_AND_ORGANIZATION ( #243, #22 ) ;
#88 = CIRCLE ( 'NONE', #167, 1.200000000000003286 ) ;
#89 = APPROVAL_STATUS ( 'not_yet_approved' ) ;
#90 = ORIENTED_EDGE ( 'NONE', *, *, #153, .F. ) ;
#91 = COORDINATED_UNIVERSAL_TIME_OFFSET ( 1, 0, .AHEAD. ) ;
#92 = ORIENTED_EDGE ( 'NONE', *, *, #169, .F. ) ;
#93 = ADVANCED_FACE ( 'NONE', ( #36 ), #27, .F. ) ;
#94 = COORDINATED_UNIVERSAL_TIME_OFFSET ( 1, 0, .AHEAD. ) ;
#95 = EDGE_LOOP ( 'NONE', ( #15 ) ) ;
#96 = APPLICATION_CONTEXT ( 'configuration controlled 3d designs of mechanical parts and assemblies' ) ;
#97 = DIRECTION ( 'NONE',  ( 0.0000000000000000000, 1.000000000000000000, 0.0000000000000000000 ) ) ;
#98 = DIRECTION ( 'NONE',  ( 0.0000000000000000000, 1.000000000000000000, 0.0000000000000000000 ) ) ;
#99 =( GEOMETRIC_REPRESENTATION_CONTEXT ( 3 ) GLOBAL_UNCERTAINTY_ASSIGNED_CONTEXT ( ( #11 ) ) GLOBAL_UNIT_ASSIGNED_CONTEXT ( ( #41, #40, #239 ) ) REPRESENTATION_CONTEXT ( 'NONE', 'WORKASPACE' ) );
#100 = DIRECTION ( 'NONE',  ( -3.491481338843133355E-15, 1.224646799147353207E-16, -1.000000000000000000 ) ) ;
#101 = DIRECTION ( 'NONE',  ( 0.0000000000000000000, 1.000000000000000000, 0.0000000000000000000 ) ) ;
#102 = CIRCLE ( 'NONE', #156, 0.1972649730810374646 ) ;
#103 = CARTESIAN_POINT ( 'NONE',  ( 1.326762908760390423E-13, -4.653657836759941941E-15, 38.00000000000000000 ) ) ;
#104 = PRODUCT_DEFINITION ( 'UNKNOWN', '', #48, #110 ) ;
#105 = EDGE_CURVE ( 'NONE', #221, #221, #173, .T. ) ;
#106 = DIRECTION ( 'NONE',  ( -3.491481338843133355E-15, 1.224646799147353207E-16, -1.000000000000000000 ) ) ;
#107 = DIRECTION ( 'NONE',  ( -4.275831445896958607E-31, -1.000000000000000000, -1.224646799147353207E-16 ) ) ;
#108 = APPLICATION_PROTOCOL_DEFINITION ( 'international standard', 'config_control_design', 1994, #96 ) ;
#109 = DIRECTION ( 'NONE',  ( -3.491481338843133355E-15, 1.224646799147353207E-16, -1.000000000000000000 ) ) ;
#110 = DESIGN_CONTEXT ( 'detailed design', #176, 'design' ) ;
#111 = COORDINATED_UNIVERSAL_TIME_OFFSET ( 1, 0, .AHEAD. ) ;
#112 = ADVANCED_FACE ( 'NONE', ( #145, #70 ), #155, .T. ) ;
#113 = CONICAL_SURFACE ( 'NONE', #190, 1.200000000000003286, 0.7853981633974453924 ) ;
#114 = APPROVAL_ROLE ( '' ) ;
#115 = APPROVAL_DATE_TIME ( #16, #76 ) ;
#116 = ORIENTED_EDGE ( 'NONE', *, *, #42, .F. ) ;
#117 = LOCAL_TIME ( 8, 27, 16.00000000000000000, #271 ) ;
#118 = FACE_OUTER_BOUND ( 'NONE', #95, .T. ) ;
#119 = AXIS2_PLACEMENT_3D ( 'NONE', #165, #233, #236 ) ;
#120 = DIRECTION ( 'NONE',  ( 4.275831445896959482E-31, 1.000000000000000000, 1.224646799147353454E-16 ) ) ;
#121 = DIRECTION ( 'NONE',  ( 0.0000000000000000000, 1.000000000000000000, 0.0000000000000000000 ) ) ;
#122 = CC_DESIGN_APPROVAL ( #247, ( #48 ) ) ;
#123 = DIRECTION ( 'NONE',  ( 4.275831445896958607E-31, 1.000000000000000000, 1.224646799147353454E-16 ) ) ;
#124 = CARTESIAN_POINT ( 'NONE',  ( 0.0000000000000000000, 0.0000000000000000000, 0.0000000000000000000 ) ) ;
#125 = MANIFOLD_SOLID_BREP ( 'Corps-Déplacer/Copier1[2]', #12 ) ;
#126 = CARTESIAN_POINT ( 'NONE',  ( 1.396592535537253342E-14, -4.898587196589412829E-16, 4.000000000000000000 ) ) ;
#127 = FACE_OUTER_BOUND ( 'NONE', #63, .T. ) ;
#128 = FACE_BOUND ( 'NONE', #276, .T. ) ;
#129 = CC_DESIGN_APPROVAL ( #76, ( #104 ) ) ;
#130 = CARTESIAN_POINT ( 'NONE',  ( 4.621228053262376784E-14, 1.499999999999995559, 13.23572319247615958 ) ) ;
#131 = APPROVAL_STATUS ( 'not_yet_approved' ) ;
#132 = ADVANCED_FACE ( 'NONE', ( #171, #261 ), #26, .F. ) ;
#133 = CIRCLE ( 'NONE', #119, 0.2853844939755811883 ) ;
#134 = DATE_AND_TIME ( #230, #195 ) ;
#135 = ORIENTED_EDGE ( 'NONE', *, *, #163, .F. ) ;
#136 = PERSON_AND_ORGANIZATION_ROLE ( 'creator' ) ;
#137 = ORIENTED_EDGE ( 'NONE', *, *, #42, .T. ) ;
#138 = CC_DESIGN_PERSON_AND_ORGANIZATION_ASSIGNMENT ( #87, #273, ( #166 ) ) ;
#139 = PERSON_AND_ORGANIZATION ( #243, #22 ) ;
#140 = EDGE_LOOP ( 'NONE', ( #252 ) ) ;
#141 = CALENDAR_DATE ( 2021, 1, 12 ) ;
#142 = AXIS2_PLACEMENT_3D ( 'NONE', #28, #244, #2 ) ;
#143 = PLANE ( 'NONE',  #210 ) ;
#144 = CYLINDRICAL_SURFACE ( 'NONE', #264, 0.2549999999999994493 ) ;
#145 = FACE_BOUND ( 'NONE', #274, .T. ) ;
#146 = DIRECTION ( 'NONE',  ( -3.776333224288708201E-31, -1.000000000000000000, -1.062943306358340622E-16 ) ) ;
#147 = ADVANCED_FACE ( 'NONE', ( #263 ), #143, .T. ) ;
#148 = CYLINDRICAL_SURFACE ( 'NONE', #58, 0.2549999999999997824 ) ;
#149 = DIRECTION ( 'NONE',  ( 0.0000000000000000000, 1.000000000000000000, 0.0000000000000000000 ) ) ;
#150 = VERTEX_POINT ( 'NONE', #55 ) ;
#151 = CARTESIAN_POINT ( 'NONE',  ( 1.326762908760390423E-13, 1.199999999999998845, 38.00000000000000000 ) ) ;
#152 = CYLINDRICAL_SURFACE ( 'NONE', #245, 1.500000000000000000 ) ;
#153 = EDGE_CURVE ( 'NONE', #39, #39, #3, .T. ) ;
#154 = SHAPE_DEFINITION_REPRESENTATION ( #68, #206 ) ;
#155 = CONICAL_SURFACE ( 'NONE', #78, 0.2549999999999992828, 0.5235987755982928205 ) ;
#156 = AXIS2_PLACEMENT_3D ( 'NONE', #37, #281, #123 ) ;
#157 = PERSON_AND_ORGANIZATION_ROLE ( 'creator' ) ;
#158 = EDGE_LOOP ( 'NONE', ( #256 ) ) ;
#159 = CC_DESIGN_SECURITY_CLASSIFICATION ( #66, ( #48 ) ) ;
#160 = APPROVAL_STATUS ( 'not_yet_approved' ) ;
#161 = AXIS2_PLACEMENT_3D ( 'NONE', #51, #24, #101 ) ;
#162 = ORIENTED_EDGE ( 'NONE', *, *, #20, .F. ) ;
#163 = EDGE_CURVE ( 'NONE', #77, #77, #102, .T. ) ;
#164 = CARTESIAN_POINT ( 'NONE',  ( 3.491481338843133355E-16, -1.224646799147353115E-17, 0.09999999999999999167 ) ) ;
#165 = CARTESIAN_POINT ( 'NONE',  ( 2.216146677675516400E-14, -7.773196164799257849E-16, 6.347296355333847728 ) ) ;
#166 = PRODUCT ( '200745', '200745', '', ( #9 ) ) ;
#167 = AXIS2_PLACEMENT_3D ( 'NONE', #103, #71, #23 ) ;
#168 = FACE_OUTER_BOUND ( 'NONE', #187, .T. ) ;
#169 = EDGE_CURVE ( 'NONE', #43, #43, #255, .T. ) ;
#170 = DIRECTION ( 'NONE',  ( -3.491481338843133355E-15, 1.224646799147353207E-16, -1.000000000000000000 ) ) ;
#171 = FACE_OUTER_BOUND ( 'NONE', #14, .T. ) ;
#172 = VERTEX_POINT ( 'NONE', #83 ) ;
#173 = CIRCLE ( 'NONE', #183, 0.2549999999999992828 ) ;
#174 = FACE_OUTER_BOUND ( 'NONE', #228, .T. ) ;
#175 = LOCAL_TIME ( 8, 27, 16.00000000000000000, #94 ) ;
#176 = APPLICATION_CONTEXT ( 'configuration controlled 3d designs of mechanical parts and assemblies' ) ;
#177 = DIRECTION ( 'NONE',  ( 0.0000000000000000000, 0.0000000000000000000, 1.000000000000000000 ) ) ;
#178 = AXIS2_PLACEMENT_3D ( 'NONE', #234, #260, #97 ) ;
#179 = APPROVAL ( #160, 'UNSPECIFIED' ) ;
#180 = DATE_TIME_ROLE ( 'creation_date' ) ;
#181 = EDGE_LOOP ( 'NONE', ( #10 ) ) ;
#182 = ORIENTED_EDGE ( 'NONE', *, *, #153, .T. ) ;
#183 = AXIS2_PLACEMENT_3D ( 'NONE', #1, #100, #75 ) ;
#184 = PERSON_AND_ORGANIZATION_ROLE ( 'classification_officer' ) ;
#185 = EDGE_LOOP ( 'NONE', ( #279 ) ) ;
#186 = CALENDAR_DATE ( 2021, 1, 12 ) ;
#187 = EDGE_LOOP ( 'NONE', ( #182 ) ) ;
#188 = ADVANCED_FACE ( 'NONE', ( #193, #283 ), #113, .T. ) ;
#189 = CARTESIAN_POINT ( 'NONE',  ( 1.326762908760390423E-13, 8.998558695971103225E-33, 38.00000000000000000 ) ) ;
#190 = AXIS2_PLACEMENT_3D ( 'NONE', #74, #170, #79 ) ;
#191 = AXIS2_PLACEMENT_3D ( 'NONE', #126, #109, #149 ) ;
#192 = DIRECTION ( 'NONE',  ( -3.491481338843133355E-15, 1.224646799147353207E-16, -1.000000000000000000 ) ) ;
#193 = FACE_OUTER_BOUND ( 'NONE', #213, .T. ) ;
#194 = DIRECTION ( 'NONE',  ( -3.491481338843133355E-15, 1.224646799147353207E-16, -1.000000000000000000 ) ) ;
#195 = LOCAL_TIME ( 8, 27, 16.00000000000000000, #44 ) ;
#196 = DIRECTION ( 'NONE',  ( 4.275831445896959482E-31, 1.000000000000000000, 1.224646799147353207E-16 ) ) ;
#197 = CC_DESIGN_DATE_AND_TIME_ASSIGNMENT ( #278, #246, ( #66 ) ) ;
#198 = CARTESIAN_POINT ( 'NONE',  ( 0.0000000000000000000, 0.0000000000000000000, 0.0000000000000000000 ) ) ;
#199 = CARTESIAN_POINT ( 'NONE',  ( 0.0000000000000000000, 0.0000000000000000000, 0.0000000000000000000 ) ) ;
#200 = ADVANCED_FACE ( 'NONE', ( #128, #174 ), #267, .T. ) ;
#201 = CARTESIAN_POINT ( 'NONE',  ( 3.491481338843134341E-16, 0.2549999999999992828, 0.1000000000000000194 ) ) ;
#202 = CALENDAR_DATE ( 2021, 1, 12 ) ;
#203 = LOCAL_TIME ( 8, 27, 16.00000000000000000, #111 ) ;
#204 = ORIENTED_EDGE ( 'NONE', *, *, #59, .F. ) ;
#205 = APPROVAL_ROLE ( '' ) ;
#206 = ADVANCED_BREP_SHAPE_REPRESENTATION ( '200745', ( #220, #125, #80 ), #99 ) ;
#207 = PERSON_AND_ORGANIZATION_ROLE ( 'design_supplier' ) ;
#208 = CC_DESIGN_PERSON_AND_ORGANIZATION_ASSIGNMENT ( #139, #157, ( #104 ) ) ;
#209 = CARTESIAN_POINT ( 'NONE',  ( 0.0000000000000000000, 0.0000000000000000000, 0.0000000000000000000 ) ) ;
#210 = AXIS2_PLACEMENT_3D ( 'NONE', #232, #259, #282 ) ;
#211 = CARTESIAN_POINT ( 'NONE',  ( 2.094888803305880013E-14, -8.673617379884035472E-16, 6.000000000000000000 ) ) ;
#212 = AXIS2_PLACEMENT_3D ( 'NONE', #30, #84, #107 ) ;
#213 = EDGE_LOOP ( 'NONE', ( #65 ) ) ;
#214 = CARTESIAN_POINT ( 'NONE',  ( 4.621228053262376784E-14, -1.620908604206631740E-15, 13.23572319247615958 ) ) ;
#215 = FACE_OUTER_BOUND ( 'NONE', #181, .T. ) ;
#216 = FACE_OUTER_BOUND ( 'NONE', #140, .T. ) ;
#217 = ADVANCED_FACE ( 'NONE', ( #29 ), #5, .F. ) ;
#218 = CARTESIAN_POINT ( 'NONE',  ( 2.216146677675516400E-14, 0.2853844939755804666, 6.347296355333847728 ) ) ;
#219 = CIRCLE ( 'NONE', #227, 1.499999999999996891 ) ;
#220 = MANIFOLD_SOLID_BREP ( 'Corps-Déplacer/Copier1[1]', #72 ) ;
#221 = VERTEX_POINT ( 'NONE', #201 ) ;
#222 = VERTEX_POINT ( 'NONE', #218 ) ;
#223 = DATE_AND_TIME ( #186, #257 ) ;
#224 = PERSON_AND_ORGANIZATION ( #243, #22 ) ;
#225 = ORIENTED_EDGE ( 'NONE', *, *, #105, .T. ) ;
#226 = EDGE_LOOP ( 'NONE', ( #92 ) ) ;
#227 = AXIS2_PLACEMENT_3D ( 'NONE', #214, #50, #121 ) ;
#228 = EDGE_LOOP ( 'NONE', ( #272 ) ) ;
#229 = AXIS2_PLACEMENT_3D ( 'NONE', #235, #21, #98 ) ;
#230 = CALENDAR_DATE ( 2021, 1, 12 ) ;
#231 = ADVANCED_FACE ( 'NONE', ( #266 ), #242, .F. ) ;
#232 = CARTESIAN_POINT ( 'NONE',  ( 1.396592535537253342E-14, 1.912193722893859144E-33, 4.000000000000000000 ) ) ;
#233 = DIRECTION ( 'NONE',  ( -3.491481338843133355E-15, 1.224646799147353207E-16, -1.000000000000000000 ) ) ;
#234 = CARTESIAN_POINT ( 'NONE',  ( 1.316288464743861212E-13, -4.616918432785521081E-15, 37.69999999999999574 ) ) ;
#235 = CARTESIAN_POINT ( 'NONE',  ( 2.094888803305880013E-14, -7.347880794884119736E-16, 6.000000000000000000 ) ) ;
#236 = DIRECTION ( 'NONE',  ( 0.0000000000000000000, 1.000000000000000000, 0.0000000000000000000 ) ) ;
#237 = CARTESIAN_POINT ( 'NONE',  ( -9.463679131915808972E-32, 0.1972649730810374646, -2.710505431213761085E-17 ) ) ;
#238 = EDGE_CURVE ( 'NONE', #150, #150, #269, .T. ) ;
#239 =( NAMED_UNIT ( * ) SI_UNIT ( $, .STERADIAN. ) SOLID_ANGLE_UNIT ( ) );
#240 = CARTESIAN_POINT ( 'NONE',  ( 4.621228053262376784E-14, -1.620908604206631740E-15, 13.23572319247615958 ) ) ;
#241 = ADVANCED_FACE ( 'NONE', ( #127, #216 ), #152, .T. ) ;
#242 = PLANE ( 'NONE',  #212 ) ;
#243 = PERSON ( 'UNSPECIFIED', 'UNSPECIFIED', 'UNSPECIFIED', ('UNSPECIFIED'), ('UNSPECIFIED'), ('UNSPECIFIED') ) ;
#244 = DIRECTION ( 'NONE',  ( 3.491481338843133355E-15, -1.224646799147353207E-16, 1.000000000000000000 ) ) ;
#245 = AXIS2_PLACEMENT_3D ( 'NONE', #198, #106, #196 ) ;
#246 = DATE_TIME_ROLE ( 'classification_date' ) ;
#247 = APPROVAL ( #131, 'UNSPECIFIED' ) ;
#248 = ORIENTED_EDGE ( 'NONE', *, *, #238, .F. ) ;
#249 = CALENDAR_DATE ( 2021, 1, 12 ) ;
#250 = EDGE_LOOP ( 'NONE', ( #116 ) ) ;
#251 = APPROVAL_PERSON_ORGANIZATION ( #224, #247, #205 ) ;
#252 = ORIENTED_EDGE ( 'NONE', *, *, #69, .T. ) ;
#253 = PERSON_AND_ORGANIZATION ( #243, #22 ) ;
#254 = EDGE_LOOP ( 'NONE', ( #137 ) ) ;
#255 = CIRCLE ( 'NONE', #161, 0.2549999999999996714 ) ;
#256 = ORIENTED_EDGE ( 'NONE', *, *, #59, .T. ) ;
#257 = LOCAL_TIME ( 8, 27, 16.00000000000000000, #91 ) ;
#258 = FACE_OUTER_BOUND ( 'NONE', #47, .T. ) ;
#259 = DIRECTION ( 'NONE',  ( 3.491481338843133355E-15, -1.224646799147353207E-16, 1.000000000000000000 ) ) ;
#260 = DIRECTION ( 'NONE',  ( -3.491481338843133355E-15, 1.224646799147353207E-16, -1.000000000000000000 ) ) ;
#261 = FACE_OUTER_BOUND ( 'NONE', #158, .T. ) ;
#262 = PRODUCT_RELATED_PRODUCT_CATEGORY ( 'detail', '', ( #166 ) ) ;
#263 = FACE_OUTER_BOUND ( 'NONE', #226, .T. ) ;
#264 = AXIS2_PLACEMENT_3D ( 'NONE', #124, #194, #18 ) ;
#265 = CARTESIAN_POINT ( 'NONE',  ( 2.094888803305880013E-14, 0.2549999999999991718, 6.000000000000000000 ) ) ;
#266 = FACE_OUTER_BOUND ( 'NONE', #185, .T. ) ;
#267 = CONICAL_SURFACE ( 'NONE', #8, 1.499999999999996891, 0.1745329251994260644 ) ;
#268 = VERTEX_POINT ( 'NONE', #151 ) ;
#269 = CIRCLE ( 'NONE', #191, 0.2549999999999996714 ) ;
#270 = CC_DESIGN_DATE_AND_TIME_ASSIGNMENT ( #223, #180, ( #104 ) ) ;
#271 = COORDINATED_UNIVERSAL_TIME_OFFSET ( 1, 0, .AHEAD. ) ;
#272 = ORIENTED_EDGE ( 'NONE', *, *, #20, .T. ) ;
#273 = PERSON_AND_ORGANIZATION_ROLE ( 'design_owner' ) ;
#274 = EDGE_LOOP ( 'NONE', ( #135 ) ) ;
#275 = SECURITY_CLASSIFICATION_LEVEL ( 'unclassified' ) ;
#276 = EDGE_LOOP ( 'NONE', ( #204 ) ) ;
#277 = APPROVAL_PERSON_ORGANIZATION ( #253, #179, #114 ) ;
#278 = DATE_AND_TIME ( #249, #117 ) ;
#279 = ORIENTED_EDGE ( 'NONE', *, *, #163, .T. ) ;
#280 = DIRECTION ( 'NONE',  ( 4.275831445896958607E-31, 1.000000000000000000, 1.224646799147353207E-16 ) ) ;
#281 = DIRECTION ( 'NONE',  ( -3.491481338843133355E-15, 1.224646799147353207E-16, -1.000000000000000000 ) ) ;
#282 = DIRECTION ( 'NONE',  ( -4.275831445896958607E-31, -1.000000000000000000, -1.224646799147353207E-16 ) ) ;
#283 = FACE_BOUND ( 'NONE', #254, .T. ) ;
ENDSEC;
END-ISO-10303-21;
