ISO-10303-21;
HEADER;
FILE_DESCRIPTION (( 'STEP AP203' ),
    '1' );
FILE_NAME ('200744.step',
    '2021-12-01T07:27:16',
    ( '' ),
    ( '' ),
    'SwSTEP 2.0',
    'SolidWorks 2019',
    '' );
FILE_SCHEMA (( 'CONFIG_CONTROL_DESIGN' ));
ENDSEC;

DATA;
#1 = FACE_OUTER_BOUND ( 'NONE', #3, .T. ) ;
#2 = APPLICATION_PROTOCOL_DEFINITION ( 'international standard', 'config_control_design', 1994, #250 ) ;
#3 = EDGE_LOOP ( 'NONE', ( #154 ) ) ;
#4 = SECURITY_CLASSIFICATION_LEVEL ( 'unclassified' ) ;
#5 = ADVANCED_BREP_SHAPE_REPRESENTATION ( '200744', ( #93, #91, #27 ), #272 ) ;
#6 = CONICAL_SURFACE ( 'NONE', #79, 1.200000000000003286, 0.7853981633974453924 ) ;
#7 = CARTESIAN_POINT ( 'NONE',  ( 1.326762908760390423E-13, 1.199999999999998845, 38.00000000000000000 ) ) ;
#8 = CARTESIAN_POINT ( 'NONE',  ( 3.491481338843133848E-16, 0.2949999999999992073, 0.1000000000000000056 ) ) ;
#9 = AXIS2_PLACEMENT_3D ( 'NONE', #88, #81, #252 ) ;
#10 = DATE_AND_TIME ( #203, #185 ) ;
#11 = DIRECTION ( 'NONE',  ( 0.0000000000000000000, -1.000000000000000000, 0.0000000000000000000 ) ) ;
#12 = APPROVAL_PERSON_ORGANIZATION ( #157, #202, #237 ) ;
#13 = DIRECTION ( 'NONE',  ( -3.491481338843133355E-15, 1.224646799147353207E-16, -1.000000000000000000 ) ) ;
#14 = SECURITY_CLASSIFICATION ( '', '', #4 ) ;
#15 = DIRECTION ( 'NONE',  ( -3.491481338843133355E-15, 1.224646799147353207E-16, -1.000000000000000000 ) ) ;
#16 = DIRECTION ( 'NONE',  ( -3.491481338843133355E-15, 1.224646799147353207E-16, -1.000000000000000000 ) ) ;
#17 = FACE_OUTER_BOUND ( 'NONE', #127, .T. ) ;
#18 = EDGE_CURVE ( 'NONE', #190, #190, #119, .T. ) ;
#19 = VERTEX_POINT ( 'NONE', #140 ) ;
#20 = PERSON_AND_ORGANIZATION ( #170, #107 ) ;
#21 = FACE_OUTER_BOUND ( 'NONE', #206, .T. ) ;
#22 = PERSON_AND_ORGANIZATION ( #170, #107 ) ;
#23 = VERTEX_POINT ( 'NONE', #8 ) ;
#24 = DATE_AND_TIME ( #261, #68 ) ;
#25 = ORIENTED_EDGE ( 'NONE', *, *, #193, .F. ) ;
#26 = DATE_TIME_ROLE ( 'classification_date' ) ;
#27 = AXIS2_PLACEMENT_3D ( 'NONE', #181, #92, #162 ) ;
#28 = COORDINATED_UNIVERSAL_TIME_OFFSET ( 1, 0, .AHEAD. ) ;
#29 = ORIENTED_EDGE ( 'NONE', *, *, #134, .T. ) ;
#30 = APPROVAL_STATUS ( 'not_yet_approved' ) ;
#31 = EDGE_CURVE ( 'NONE', #57, #57, #209, .T. ) ;
#32 = APPROVAL_PERSON_ORGANIZATION ( #270, #204, #269 ) ;
#33 = DIRECTION ( 'NONE',  ( -3.491481338843133355E-15, 1.224646799147353207E-16, -1.000000000000000000 ) ) ;
#34 = DIRECTION ( 'NONE',  ( -3.491481338843133355E-15, 1.224646799147353207E-16, -1.000000000000000000 ) ) ;
#35 = FACE_BOUND ( 'NONE', #258, .T. ) ;
#36 = AXIS2_PLACEMENT_3D ( 'NONE', #146, #169, #11 ) ;
#37 = DIRECTION ( 'NONE',  ( 4.399488230079773401E-31, 1.000000000000000000, 1.224646799147353207E-16 ) ) ;
#38 = CARTESIAN_POINT ( 'NONE',  ( 2.094888803305880013E-14, -7.347880794884119736E-16, 6.000000000000000000 ) ) ;
#39 = PLANE ( 'NONE',  #141 ) ;
#40 = DIRECTION ( 'NONE',  ( -4.275831445896958607E-31, -1.000000000000000000, -1.224646799147353207E-16 ) ) ;
#41 = DIRECTION ( 'NONE',  ( 0.0000000000000000000, 1.000000000000000000, 0.0000000000000000000 ) ) ;
#42 = DATE_AND_TIME ( #263, #95 ) ;
#43 = CC_DESIGN_PERSON_AND_ORGANIZATION_ASSIGNMENT ( #22, #196, ( #120 ) ) ;
#44 = DIRECTION ( 'NONE',  ( 0.0000000000000000000, 1.000000000000000000, 0.0000000000000000000 ) ) ;
#45 = APPROVAL_ROLE ( '' ) ;
#46 = ORIENTED_EDGE ( 'NONE', *, *, #98, .T. ) ;
#47 = AXIS2_PLACEMENT_3D ( 'NONE', #149, #16, #123 ) ;
#48 = ORIENTED_EDGE ( 'NONE', *, *, #31, .T. ) ;
#49 = ADVANCED_FACE ( 'NONE', ( #151 ), #78, .T. ) ;
#50 = CIRCLE ( 'NONE', #118, 1.500000000000003331 ) ;
#51 = CARTESIAN_POINT ( 'NONE',  ( 2.216146677675516400E-14, -7.773196164799257849E-16, 6.347296355333847728 ) ) ;
#52 = AXIS2_PLACEMENT_3D ( 'NONE', #278, #247, #55 ) ;
#53 = AXIS2_PLACEMENT_3D ( 'NONE', #108, #113, #54 ) ;
#54 = DIRECTION ( 'NONE',  ( 4.896432062001460503E-31, 1.000000000000000000, 1.378223100617170431E-16 ) ) ;
#55 = DIRECTION ( 'NONE',  ( -4.275831445896958607E-31, -1.000000000000000000, -1.224646799147353207E-16 ) ) ;
#56 = CYLINDRICAL_SURFACE ( 'NONE', #47, 0.2949999999999994849 ) ;
#57 = VERTEX_POINT ( 'NONE', #232 ) ;
#58 = PLANE ( 'NONE',  #179 ) ;
#59 = CYLINDRICAL_SURFACE ( 'NONE', #184, 1.500000000000000000 ) ;
#60 = CC_DESIGN_APPROVAL ( #204, ( #14 ) ) ;
#61 = ORIENTED_EDGE ( 'NONE', *, *, #83, .F. ) ;
#62 = DIRECTION ( 'NONE',  ( -4.896432062001460503E-31, -1.000000000000000000, -1.378223100617170431E-16 ) ) ;
#63 = APPLICATION_CONTEXT ( 'configuration controlled 3d designs of mechanical parts and assemblies' ) ;
#64 = PERSON_AND_ORGANIZATION ( #170, #107 ) ;
#65 = PRODUCT ( '200744', '200744', '', ( #94 ) ) ;
#66 = APPROVAL ( #260, 'UNSPECIFIED' ) ;
#67 = PERSON_AND_ORGANIZATION ( #170, #107 ) ;
#68 = LOCAL_TIME ( 8, 27, 16.00000000000000000, #220 ) ;
#69 = VERTEX_POINT ( 'NONE', #195 ) ;
#70 = CYLINDRICAL_SURFACE ( 'NONE', #198, 0.2949999999999999289 ) ;
#71 = VERTEX_POINT ( 'NONE', #99 ) ;
#72 = EDGE_LOOP ( 'NONE', ( #233 ) ) ;
#73 = COORDINATED_UNIVERSAL_TIME_OFFSET ( 1, 0, .AHEAD. ) ;
#74 = PRODUCT_DEFINITION ( 'UNKNOWN', '', #120, #279 ) ;
#75 = CC_DESIGN_DATE_AND_TIME_ASSIGNMENT ( #10, #26, ( #14 ) ) ;
#76 = LOCAL_TIME ( 8, 27, 16.00000000000000000, #73 ) ;
#77 = EDGE_LOOP ( 'NONE', ( #221 ) ) ;
#78 = PLANE ( 'NONE',  #52 ) ;
#79 = AXIS2_PLACEMENT_3D ( 'NONE', #276, #273, #128 ) ;
#80 = CC_DESIGN_APPROVAL ( #66, ( #120 ) ) ;
#81 = DIRECTION ( 'NONE',  ( -3.491481338843133355E-15, 1.224646799147353207E-16, -1.000000000000000000 ) ) ;
#82 = DIRECTION ( 'NONE',  ( -3.491481338843133355E-15, 1.224646799147353207E-16, -1.000000000000000000 ) ) ;
#83 = EDGE_CURVE ( 'NONE', #125, #125, #244, .T. ) ;
#84 = DIRECTION ( 'NONE',  ( -3.491481338843133355E-15, 1.224646799147353207E-16, -1.000000000000000000 ) ) ;
#85 = EDGE_LOOP ( 'NONE', ( #225 ) ) ;
#86 = VERTEX_POINT ( 'NONE', #282 ) ;
#87 = EDGE_CURVE ( 'NONE', #86, #86, #112, .T. ) ;
#88 = CARTESIAN_POINT ( 'NONE',  ( 1.326762908760390423E-13, -4.653657836759941941E-15, 38.00000000000000000 ) ) ;
#89 = CARTESIAN_POINT ( 'NONE',  ( 3.491481338843132369E-16, -1.224646799147352807E-17, 0.09999999999999996392 ) ) ;
#90 = ORIENTED_EDGE ( 'NONE', *, *, #18, .T. ) ;
#91 = MANIFOLD_SOLID_BREP ( 'Corps-Déplacer/Copier1[2]', #219 ) ;
#92 = DIRECTION ( 'NONE',  ( 0.0000000000000000000, 0.0000000000000000000, 1.000000000000000000 ) ) ;
#93 = MANIFOLD_SOLID_BREP ( 'Corps-Déplacer/Copier1[1]', #268 ) ;
#94 = MECHANICAL_CONTEXT ( 'NONE', #250, 'mechanical' ) ;
#95 = LOCAL_TIME ( 8, 27, 16.00000000000000000, #137 ) ;
#96 = PERSON_AND_ORGANIZATION ( #170, #107 ) ;
#97 = DATE_AND_TIME ( #135, #266 ) ;
#98 = EDGE_CURVE ( 'NONE', #71, #71, #222, .T. ) ;
#99 = CARTESIAN_POINT ( 'NONE',  ( 2.216146677675516400E-14, 0.3253844939755797805, 6.347296355333847728 ) ) ;
#100 = CONICAL_SURFACE ( 'NONE', #36, 1.499999999999996891, 0.1745329251994261199 ) ;
#101 = CC_DESIGN_PERSON_AND_ORGANIZATION_ASSIGNMENT ( #20, #115, ( #120 ) ) ;
#102 = ORIENTED_EDGE ( 'NONE', *, *, #213, .F. ) ;
#103 = AXIS2_PLACEMENT_3D ( 'NONE', #214, #177, #133 ) ;
#104 = APPROVAL_PERSON_ORGANIZATION ( #67, #66, #45 ) ;
#105 = ADVANCED_FACE ( 'NONE', ( #200, #197 ), #70, .T. ) ;
#106 = DIRECTION ( 'NONE',  ( 4.275831445896959482E-31, 1.000000000000000000, 1.224646799147353207E-16 ) ) ;
#107 = ORGANIZATION ( 'UNSPECIFIED', 'UNSPECIFIED', '' ) ;
#108 = CARTESIAN_POINT ( 'NONE',  ( 3.491481338843132369E-16, -1.224646799147352807E-17, 0.09999999999999996392 ) ) ;
#109 = DIRECTION ( 'NONE',  ( 4.275831445896958607E-31, 1.000000000000000000, 1.224646799147353454E-16 ) ) ;
#110 = FACE_OUTER_BOUND ( 'NONE', #216, .T. ) ;
#111 = CARTESIAN_POINT ( 'NONE',  ( 1.326762908760390423E-13, 8.998558695971103225E-33, 38.00000000000000000 ) ) ;
#112 = CIRCLE ( 'NONE', #283, 0.2949999999999997624 ) ;
#113 = DIRECTION ( 'NONE',  ( -3.491481338843133355E-15, 1.224646799147353207E-16, -1.000000000000000000 ) ) ;
#114 = VERTEX_POINT ( 'NONE', #7 ) ;
#115 = PERSON_AND_ORGANIZATION_ROLE ( 'creator' ) ;
#116 = PERSON_AND_ORGANIZATION_ROLE ( 'creator' ) ;
#117 = ADVANCED_FACE ( 'NONE', ( #21 ), #58, .F. ) ;
#118 = AXIS2_PLACEMENT_3D ( 'NONE', #186, #15, #122 ) ;
#119 = CIRCLE ( 'NONE', #188, 0.2950000000000000400 ) ;
#120 = PRODUCT_DEFINITION_FORMATION_WITH_SPECIFIED_SOURCE ( 'ANY', '', #65, .NOT_KNOWN. ) ;
#121 = CC_DESIGN_PERSON_AND_ORGANIZATION_ASSIGNMENT ( #64, #240, ( #65 ) ) ;
#122 = DIRECTION ( 'NONE',  ( 0.0000000000000000000, 1.000000000000000000, 0.0000000000000000000 ) ) ;
#123 = DIRECTION ( 'NONE',  ( 4.275831445896958607E-31, 1.000000000000000000, 1.224646799147352961E-16 ) ) ;
#124 = ORIENTED_EDGE ( 'NONE', *, *, #83, .T. ) ;
#125 = VERTEX_POINT ( 'NONE', #192 ) ;
#126 = EDGE_LOOP ( 'NONE', ( #230 ) ) ;
#127 = EDGE_LOOP ( 'NONE', ( #274 ) ) ;
#128 = DIRECTION ( 'NONE',  ( 0.0000000000000000000, 1.000000000000000000, 0.0000000000000000000 ) ) ;
#129 = ADVANCED_FACE ( 'NONE', ( #229 ), #39, .F. ) ;
#130 = FACE_OUTER_BOUND ( 'NONE', #277, .T. ) ;
#131 = ORIENTED_EDGE ( 'NONE', *, *, #87, .T. ) ;
#132 = AXIS2_PLACEMENT_3D ( 'NONE', #189, #84, #208 ) ;
#133 = DIRECTION ( 'NONE',  ( 0.0000000000000000000, 1.000000000000000000, 0.0000000000000000000 ) ) ;
#134 = EDGE_CURVE ( 'NONE', #19, #19, #50, .T. ) ;
#135 = CALENDAR_DATE ( 2021, 1, 12 ) ;
#136 = COORDINATED_UNIVERSAL_TIME_OFFSET ( 1, 0, .AHEAD. ) ;
#137 = COORDINATED_UNIVERSAL_TIME_OFFSET ( 1, 0, .AHEAD. ) ;
#138 = CIRCLE ( 'NONE', #9, 1.200000000000003286 ) ;
#139 = ADVANCED_FACE ( 'NONE', ( #130, #173 ), #59, .T. ) ;
#140 = CARTESIAN_POINT ( 'NONE',  ( 1.316288464743861212E-13, 1.499999999999998668, 37.69999999999999574 ) ) ;
#141 = AXIS2_PLACEMENT_3D ( 'NONE', #155, #253, #40 ) ;
#142 = UNCERTAINTY_MEASURE_WITH_UNIT (LENGTH_MEASURE( 1.000000000000000082E-05 ), #199, 'distance_accuracy_value', 'NONE');
#143 = EDGE_LOOP ( 'NONE', ( #46 ) ) ;
#144 = ADVANCED_FACE ( 'NONE', ( #17, #215 ), #6, .T. ) ;
#145 = CC_DESIGN_SECURITY_CLASSIFICATION ( #14, ( #120 ) ) ;
#146 = CARTESIAN_POINT ( 'NONE',  ( 4.542023354700311843E-14, -1.593127335696800839E-15, 13.00887191969144219 ) ) ;
#147 = CARTESIAN_POINT ( 'NONE',  ( -1.014505032909795615E-31, 3.558404644612883536E-33, -2.905657898334755550E-17 ) ) ;
#148 = CC_DESIGN_DATE_AND_TIME_ASSIGNMENT ( #24, #201, ( #74 ) ) ;
#149 = CARTESIAN_POINT ( 'NONE',  ( 0.0000000000000000000, 0.0000000000000000000, 0.0000000000000000000 ) ) ;
#150 = DIRECTION ( 'NONE',  ( 0.0000000000000000000, 1.000000000000000000, 0.0000000000000000000 ) ) ;
#151 = FACE_OUTER_BOUND ( 'NONE', #72, .T. ) ;
#152 = FACE_OUTER_BOUND ( 'NONE', #143, .T. ) ;
#153 = CARTESIAN_POINT ( 'NONE',  ( 0.0000000000000000000, 0.0000000000000000000, 0.0000000000000000000 ) ) ;
#154 = ORIENTED_EDGE ( 'NONE', *, *, #18, .F. ) ;
#155 = CARTESIAN_POINT ( 'NONE',  ( 1.396592535537253342E-14, 2.212145679426230803E-33, 4.000000000000000000 ) ) ;
#156 = EDGE_LOOP ( 'NONE', ( #90 ) ) ;
#157 = PERSON_AND_ORGANIZATION ( #170, #107 ) ;
#158 = ORIENTED_EDGE ( 'NONE', *, *, #193, .T. ) ;
#159 =( NAMED_UNIT ( * ) PLANE_ANGLE_UNIT ( ) SI_UNIT ( $, .RADIAN. ) );
#160 = PRODUCT_RELATED_PRODUCT_CATEGORY ( 'detail', '', ( #65 ) ) ;
#161 = APPROVAL_DATE_TIME ( #97, #66 ) ;
#162 = DIRECTION ( 'NONE',  ( 1.000000000000000000, 0.0000000000000000000, 0.0000000000000000000 ) ) ;
#163 = AXIS2_PLACEMENT_3D ( 'NONE', #51, #33, #44 ) ;
#164 = CC_DESIGN_APPROVAL ( #202, ( #74 ) ) ;
#165 = DATE_AND_TIME ( #245, #76 ) ;
#166 = CIRCLE ( 'NONE', #53, 0.2949999999999992073 ) ;
#167 = ADVANCED_FACE ( 'NONE', ( #1, #152 ), #265, .F. ) ;
#168 = AXIS2_PLACEMENT_3D ( 'NONE', #89, #280, #62 ) ;
#169 = DIRECTION ( 'NONE',  ( 3.491481338843133355E-15, -1.224646799147353207E-16, 1.000000000000000000 ) ) ;
#170 = PERSON ( 'UNSPECIFIED', 'UNSPECIFIED', 'UNSPECIFIED', ('UNSPECIFIED'), ('UNSPECIFIED'), ('UNSPECIFIED') ) ;
#171 = CARTESIAN_POINT ( 'NONE',  ( 2.094888803305880013E-14, 0.2949999999999992628, 6.000000000000000000 ) ) ;
#172 = EDGE_LOOP ( 'NONE', ( #48 ) ) ;
#173 = FACE_OUTER_BOUND ( 'NONE', #271, .T. ) ;
#174 = CONICAL_SURFACE ( 'NONE', #168, 0.2949999999999992073, 0.5235987755982922653 ) ;
#175 = DIRECTION ( 'NONE',  ( -3.491481338843133355E-15, 1.224646799147353207E-16, -1.000000000000000000 ) ) ;
#176 = FACE_OUTER_BOUND ( 'NONE', #241, .T. ) ;
#177 = DIRECTION ( 'NONE',  ( -3.491481338843133355E-15, 1.224646799147353207E-16, -1.000000000000000000 ) ) ;
#178 = ADVANCED_FACE ( 'NONE', ( #35, #110 ), #174, .T. ) ;
#179 = AXIS2_PLACEMENT_3D ( 'NONE', #275, #191, #207 ) ;
#180 = PERSON_AND_ORGANIZATION_ROLE ( 'classification_officer' ) ;
#181 = CARTESIAN_POINT ( 'NONE',  ( 0.0000000000000000000, 0.0000000000000000000, 0.0000000000000000000 ) ) ;
#182 = CARTESIAN_POINT ( 'NONE',  ( 0.0000000000000000000, 0.0000000000000000000, 0.0000000000000000000 ) ) ;
#183 = AXIS2_PLACEMENT_3D ( 'NONE', #147, #231, #109 ) ;
#184 = AXIS2_PLACEMENT_3D ( 'NONE', #153, #34, #106 ) ;
#185 = LOCAL_TIME ( 8, 27, 16.00000000000000000, #28 ) ;
#186 = CARTESIAN_POINT ( 'NONE',  ( 1.316288464743861212E-13, -4.616918432785521081E-15, 37.69999999999999574 ) ) ;
#187 = EDGE_LOOP ( 'NONE', ( #281 ) ) ;
#188 = AXIS2_PLACEMENT_3D ( 'NONE', #38, #175, #41 ) ;
#189 = CARTESIAN_POINT ( 'NONE',  ( 1.396592535537253342E-14, -4.898587196589412829E-16, 4.000000000000000000 ) ) ;
#190 = VERTEX_POINT ( 'NONE', #171 ) ;
#191 = DIRECTION ( 'NONE',  ( 3.491481338843133355E-15, -1.224646799147353207E-16, 1.000000000000000000 ) ) ;
#192 = CARTESIAN_POINT ( 'NONE',  ( 0.0000000000000000000, 0.2372649730810375002, 0.0000000000000000000 ) ) ;
#193 = EDGE_CURVE ( 'NONE', #23, #23, #166, .T. ) ;
#194 = DIRECTION ( 'NONE',  ( -3.491481338843133355E-15, 1.224646799147353207E-16, -1.000000000000000000 ) ) ;
#195 = CARTESIAN_POINT ( 'NONE',  ( 1.396592535537253342E-14, 0.2949999999999992628, 4.000000000000000000 ) ) ;
#196 = PERSON_AND_ORGANIZATION_ROLE ( 'design_supplier' ) ;
#197 = FACE_OUTER_BOUND ( 'NONE', #156, .T. ) ;
#198 = AXIS2_PLACEMENT_3D ( 'NONE', #182, #243, #242 ) ;
#199 =( LENGTH_UNIT ( ) NAMED_UNIT ( * ) SI_UNIT ( .MILLI., .METRE. ) );
#200 = FACE_OUTER_BOUND ( 'NONE', #85, .T. ) ;
#201 = DATE_TIME_ROLE ( 'creation_date' ) ;
#202 = APPROVAL ( #257, 'UNSPECIFIED' ) ;
#203 = CALENDAR_DATE ( 2021, 1, 12 ) ;
#204 = APPROVAL ( #30, 'UNSPECIFIED' ) ;
#205 = APPROVAL_DATE_TIME ( #165, #204 ) ;
#206 = EDGE_LOOP ( 'NONE', ( #124 ) ) ;
#207 = DIRECTION ( 'NONE',  ( -4.275831445896958607E-31, -1.000000000000000000, -1.224646799147353207E-16 ) ) ;
#208 = DIRECTION ( 'NONE',  ( 0.0000000000000000000, 1.000000000000000000, 0.0000000000000000000 ) ) ;
#209 = CIRCLE ( 'NONE', #103, 1.499999999999996891 ) ;
#210 = CARTESIAN_POINT ( 'NONE',  ( 2.094888803305880013E-14, -8.673617379884035472E-16, 6.000000000000000000 ) ) ;
#211 = FACE_OUTER_BOUND ( 'NONE', #172, .T. ) ;
#212 = EDGE_LOOP ( 'NONE', ( #25 ) ) ;
#213 = EDGE_CURVE ( 'NONE', #114, #114, #138, .T. ) ;
#214 = CARTESIAN_POINT ( 'NONE',  ( 4.542023354700311843E-14, -1.593127335696800839E-15, 13.00887191969144219 ) ) ;
#215 = FACE_BOUND ( 'NONE', #187, .T. ) ;
#216 = EDGE_LOOP ( 'NONE', ( #158 ) ) ;
#217 = AXIS2_PLACEMENT_3D ( 'NONE', #111, #194, #236 ) ;
#218 = CC_DESIGN_PERSON_AND_ORGANIZATION_ASSIGNMENT ( #238, #116, ( #74 ) ) ;
#219 = CLOSED_SHELL ( 'NONE', ( #117, #178, #254, #49 ) ) ;
#220 = COORDINATED_UNIVERSAL_TIME_OFFSET ( 1, 0, .AHEAD. ) ;
#221 = ORIENTED_EDGE ( 'NONE', *, *, #98, .F. ) ;
#222 = CIRCLE ( 'NONE', #163, 0.3253844939755805576 ) ;
#223 = APPROVAL_DATE_TIME ( #42, #202 ) ;
#224 = ADVANCED_FACE ( 'NONE', ( #176 ), #255, .F. ) ;
#225 = ORIENTED_EDGE ( 'NONE', *, *, #262, .F. ) ;
#226 = CIRCLE ( 'NONE', #132, 0.2949999999999997624 ) ;
#227 = FACE_BOUND ( 'NONE', #77, .T. ) ;
#228 = ADVANCED_FACE ( 'NONE', ( #227, #211 ), #100, .T. ) ;
#229 = FACE_OUTER_BOUND ( 'NONE', #126, .T. ) ;
#230 = ORIENTED_EDGE ( 'NONE', *, *, #262, .T. ) ;
#231 = DIRECTION ( 'NONE',  ( -3.491481338843133355E-15, 1.224646799147353207E-16, -1.000000000000000000 ) ) ;
#232 = CARTESIAN_POINT ( 'NONE',  ( 4.542023354700311843E-14, 1.499999999999995559, 13.00887191969144219 ) ) ;
#233 = ORIENTED_EDGE ( 'NONE', *, *, #87, .F. ) ;
#234 = FACE_OUTER_BOUND ( 'NONE', #212, .T. ) ;
#235 = ORIENTED_EDGE ( 'NONE', *, *, #31, .F. ) ;
#236 = DIRECTION ( 'NONE',  ( 4.275831445896958607E-31, 1.000000000000000000, 1.224646799147353207E-16 ) ) ;
#237 = APPROVAL_ROLE ( '' ) ;
#238 = PERSON_AND_ORGANIZATION ( #170, #107 ) ;
#239 = APPLICATION_PROTOCOL_DEFINITION ( 'international standard', 'config_control_design', 1994, #63 ) ;
#240 = PERSON_AND_ORGANIZATION_ROLE ( 'design_owner' ) ;
#241 = EDGE_LOOP ( 'NONE', ( #102 ) ) ;
#242 = DIRECTION ( 'NONE',  ( 4.275831445896958607E-31, 1.000000000000000000, 1.224646799147353207E-16 ) ) ;
#243 = DIRECTION ( 'NONE',  ( -3.491481338843133355E-15, 1.224646799147353207E-16, -1.000000000000000000 ) ) ;
#244 = CIRCLE ( 'NONE', #183, 0.2372649730810375002 ) ;
#245 = CALENDAR_DATE ( 2021, 1, 12 ) ;
#246 = PRODUCT_DEFINITION_SHAPE ( 'NONE', 'NONE',  #74 ) ;
#247 = DIRECTION ( 'NONE',  ( 3.491481338843133355E-15, -1.224646799147353207E-16, 1.000000000000000000 ) ) ;
#248 = FACE_OUTER_BOUND ( 'NONE', #264, .T. ) ;
#249 = CARTESIAN_POINT ( 'NONE',  ( 1.396592535537253342E-14, -4.898587196589412829E-16, 4.000000000000000000 ) ) ;
#250 = APPLICATION_CONTEXT ( 'configuration controlled 3d designs of mechanical parts and assemblies' ) ;
#251 = CC_DESIGN_PERSON_AND_ORGANIZATION_ASSIGNMENT ( #96, #180, ( #14 ) ) ;
#252 = DIRECTION ( 'NONE',  ( 0.0000000000000000000, 1.000000000000000000, 0.0000000000000000000 ) ) ;
#253 = DIRECTION ( 'NONE',  ( 3.491481338843133355E-15, -1.224646799147353207E-16, 1.000000000000000000 ) ) ;
#254 = ADVANCED_FACE ( 'NONE', ( #234, #248 ), #56, .T. ) ;
#255 = PLANE ( 'NONE',  #217 ) ;
#256 =( NAMED_UNIT ( * ) SI_UNIT ( $, .STERADIAN. ) SOLID_ANGLE_UNIT ( ) );
#257 = APPROVAL_STATUS ( 'not_yet_approved' ) ;
#258 = EDGE_LOOP ( 'NONE', ( #61 ) ) ;
#259 = AXIS2_PLACEMENT_3D ( 'NONE', #210, #13, #37 ) ;
#260 = APPROVAL_STATUS ( 'not_yet_approved' ) ;
#261 = CALENDAR_DATE ( 2021, 1, 12 ) ;
#262 = EDGE_CURVE ( 'NONE', #69, #69, #226, .T. ) ;
#263 = CALENDAR_DATE ( 2021, 1, 12 ) ;
#264 = EDGE_LOOP ( 'NONE', ( #131 ) ) ;
#265 = TOROIDAL_SURFACE ( 'NONE', #259, 2.295000000000000373, 2.000000000000000444 ) ;
#266 = LOCAL_TIME ( 8, 27, 16.00000000000000000, #136 ) ;
#267 = SHAPE_DEFINITION_REPRESENTATION ( #246, #5 ) ;
#268 = CLOSED_SHELL ( 'NONE', ( #129, #105, #167, #228, #139, #144, #224 ) ) ;
#269 = APPROVAL_ROLE ( '' ) ;
#270 = PERSON_AND_ORGANIZATION ( #170, #107 ) ;
#271 = EDGE_LOOP ( 'NONE', ( #29 ) ) ;
#272 =( GEOMETRIC_REPRESENTATION_CONTEXT ( 3 ) GLOBAL_UNCERTAINTY_ASSIGNED_CONTEXT ( ( #142 ) ) GLOBAL_UNIT_ASSIGNED_CONTEXT ( ( #199, #159, #256 ) ) REPRESENTATION_CONTEXT ( 'NONE', 'WORKASPACE' ) );
#273 = DIRECTION ( 'NONE',  ( -3.491481338843133355E-15, 1.224646799147353207E-16, -1.000000000000000000 ) ) ;
#274 = ORIENTED_EDGE ( 'NONE', *, *, #134, .F. ) ;
#275 = CARTESIAN_POINT ( 'NONE',  ( -5.072525164548978073E-32, 1.779202322306441768E-33, -1.452828949167377775E-17 ) ) ;
#276 = CARTESIAN_POINT ( 'NONE',  ( 1.326762908760390423E-13, -4.653657836759941941E-15, 38.00000000000000000 ) ) ;
#277 = EDGE_LOOP ( 'NONE', ( #235 ) ) ;
#278 = CARTESIAN_POINT ( 'NONE',  ( 1.396592535537253342E-14, 2.212145679426230803E-33, 4.000000000000000000 ) ) ;
#279 = DESIGN_CONTEXT ( 'detailed design', #63, 'design' ) ;
#280 = DIRECTION ( 'NONE',  ( 3.491481338843133355E-15, -1.224646799147353207E-16, 1.000000000000000000 ) ) ;
#281 = ORIENTED_EDGE ( 'NONE', *, *, #213, .T. ) ;
#282 = CARTESIAN_POINT ( 'NONE',  ( 1.396592535537253342E-14, 0.2949999999999992628, 4.000000000000000000 ) ) ;
#283 = AXIS2_PLACEMENT_3D ( 'NONE', #249, #82, #150 ) ;
ENDSEC;
END-ISO-10303-21;
