ISO-10303-21;
HEADER;
FILE_DESCRIPTION (( 'STEP AP203' ),
    '1' );
FILE_NAME ('200743.step',
    '2021-12-01T07:27:15',
    ( '' ),
    ( '' ),
    'SwSTEP 2.0',
    'SolidWorks 2019',
    '' );
FILE_SCHEMA (( 'CONFIG_CONTROL_DESIGN' ));
ENDSEC;

DATA;
#1 = AXIS2_PLACEMENT_3D ( 'NONE', #8, #57, #123 ) ;
#2 = PERSON_AND_ORGANIZATION_ROLE ( 'design_supplier' ) ;
#3 = CALENDAR_DATE ( 2021, 1, 12 ) ;
#4 = DIRECTION ( 'NONE',  ( 0.0000000000000000000, 0.0000000000000000000, 1.000000000000000000 ) ) ;
#5 = EDGE_CURVE ( 'NONE', #75, #75, #203, .T. ) ;
#6 = CARTESIAN_POINT ( 'NONE',  ( 1.396592535537253342E-14, 0.2699999999999993516, 4.000000000000000000 ) ) ;
#7 = ORIENTED_EDGE ( 'NONE', *, *, #33, .F. ) ;
#8 = CARTESIAN_POINT ( 'NONE',  ( 1.326762908760390423E-13, -4.653657836759941941E-15, 38.00000000000000000 ) ) ;
#9 = ADVANCED_FACE ( 'NONE', ( #218, #192 ), #20, .T. ) ;
#10 = FACE_OUTER_BOUND ( 'NONE', #40, .T. ) ;
#11 = CIRCLE ( 'NONE', #127, 1.499999999999996891 ) ;
#12 = DIRECTION ( 'NONE',  ( -3.491481338843133355E-15, 1.224646799147353207E-16, -1.000000000000000000 ) ) ;
#13 = CARTESIAN_POINT ( 'NONE',  ( 1.316288464743861212E-13, -4.616918432785521081E-15, 37.69999999999999574 ) ) ;
#14 = APPLICATION_CONTEXT ( 'configuration controlled 3d designs of mechanical parts and assemblies' ) ;
#15 = ADVANCED_FACE ( 'NONE', ( #252, #61 ), #152, .T. ) ;
#16 = CIRCLE ( 'NONE', #223, 1.200000000000003286 ) ;
#17 = CC_DESIGN_APPROVAL ( #260, ( #58 ) ) ;
#18 = PERSON_AND_ORGANIZATION ( #82, #189 ) ;
#19 = COORDINATED_UNIVERSAL_TIME_OFFSET ( 1, 0, .AHEAD. ) ;
#20 = CONICAL_SURFACE ( 'NONE', #146, 0.2699999999999992406, 0.5235987755982925984 ) ;
#21 = CONICAL_SURFACE ( 'NONE', #100, 1.499999999999996891, 0.1745329251994261199 ) ;
#22 = VERTEX_POINT ( 'NONE', #6 ) ;
#23 = SHAPE_DEFINITION_REPRESENTATION ( #169, #195 ) ;
#24 = EDGE_LOOP ( 'NONE', ( #179 ) ) ;
#25 = ORIENTED_EDGE ( 'NONE', *, *, #5, .F. ) ;
#26 = DIRECTION ( 'NONE',  ( -3.491481338843133355E-15, 1.224646799147353207E-16, -1.000000000000000000 ) ) ;
#27 = CC_DESIGN_DATE_AND_TIME_ASSIGNMENT ( #174, #237, ( #147 ) ) ;
#28 = ADVANCED_FACE ( 'NONE', ( #106 ), #87, .F. ) ;
#29 = EDGE_LOOP ( 'NONE', ( #182 ) ) ;
#30 = COORDINATED_UNIVERSAL_TIME_OFFSET ( 1, 0, .AHEAD. ) ;
#31 = MANIFOLD_SOLID_BREP ( 'Corps-Déplacer/Copier1[1]', #215 ) ;
#32 = DIRECTION ( 'NONE',  ( -3.491481338843133355E-15, 1.224646799147353207E-16, -1.000000000000000000 ) ) ;
#33 = EDGE_CURVE ( 'NONE', #205, #205, #271, .T. ) ;
#34 = LOCAL_TIME ( 8, 27, 15.00000000000000000, #30 ) ;
#35 = DIRECTION ( 'NONE',  ( -3.491481338843133355E-15, 1.224646799147353207E-16, -1.000000000000000000 ) ) ;
#36 = DIRECTION ( 'NONE',  ( 0.0000000000000000000, 1.000000000000000000, 0.0000000000000000000 ) ) ;
#37 = CIRCLE ( 'NONE', #164, 0.2699999999999992406 ) ;
#38 = DIRECTION ( 'NONE',  ( -4.275831445896958607E-31, -1.000000000000000000, -1.224646799147353207E-16 ) ) ;
#39 = DIRECTION ( 'NONE',  ( -3.491481338843133355E-15, 1.224646799147353207E-16, -1.000000000000000000 ) ) ;
#40 = EDGE_LOOP ( 'NONE', ( #268 ) ) ;
#41 = AXIS2_PLACEMENT_3D ( 'NONE', #170, #35, #166 ) ;
#42 = APPROVAL_ROLE ( '' ) ;
#43 = APPROVAL_PERSON_ORGANIZATION ( #172, #256, #42 ) ;
#44 = PERSON_AND_ORGANIZATION_ROLE ( 'creator' ) ;
#45 = LOCAL_TIME ( 8, 27, 15.00000000000000000, #94 ) ;
#46 = CARTESIAN_POINT ( 'NONE',  ( 1.326762908760390423E-13, 1.199999999999998845, 38.00000000000000000 ) ) ;
#47 = APPROVAL_STATUS ( 'not_yet_approved' ) ;
#48 = AXIS2_PLACEMENT_3D ( 'NONE', #254, #282, #220 ) ;
#49 = EDGE_LOOP ( 'NONE', ( #265 ) ) ;
#50 = EDGE_LOOP ( 'NONE', ( #7 ) ) ;
#51 =( NAMED_UNIT ( * ) PLANE_ANGLE_UNIT ( ) SI_UNIT ( $, .RADIAN. ) );
#52 = CC_DESIGN_SECURITY_CLASSIFICATION ( #147, ( #72 ) ) ;
#53 = EDGE_LOOP ( 'NONE', ( #59 ) ) ;
#54 = MECHANICAL_CONTEXT ( 'NONE', #14, 'mechanical' ) ;
#55 = DIRECTION ( 'NONE',  ( -3.491481338843133355E-15, 1.224646799147353207E-16, -1.000000000000000000 ) ) ;
#56 = FACE_OUTER_BOUND ( 'NONE', #162, .T. ) ;
#57 = DIRECTION ( 'NONE',  ( -3.491481338843133355E-15, 1.224646799147353207E-16, -1.000000000000000000 ) ) ;
#58 = PRODUCT_DEFINITION ( 'UNKNOWN', '', #72, #165 ) ;
#59 = ORIENTED_EDGE ( 'NONE', *, *, #122, .F. ) ;
#60 = ADVANCED_FACE ( 'NONE', ( #74 ), #201, .T. ) ;
#61 = FACE_OUTER_BOUND ( 'NONE', #176, .T. ) ;
#62 = CIRCLE ( 'NONE', #210, 1.500000000000003331 ) ;
#63 = APPROVAL_ROLE ( '' ) ;
#64 = FACE_OUTER_BOUND ( 'NONE', #24, .T. ) ;
#65 = COORDINATED_UNIVERSAL_TIME_OFFSET ( 1, 0, .AHEAD. ) ;
#66 = PERSON_AND_ORGANIZATION ( #82, #189 ) ;
#67 = DIRECTION ( 'NONE',  ( -4.275831445896958607E-31, -1.000000000000000000, -1.224646799147353207E-16 ) ) ;
#68 = ORIENTED_EDGE ( 'NONE', *, *, #104, .F. ) ;
#69 = DATE_AND_TIME ( #3, #45 ) ;
#70 = CIRCLE ( 'NONE', #185, 0.2699999999999998512 ) ;
#71 = APPROVAL_DATE_TIME ( #69, #260 ) ;
#72 = PRODUCT_DEFINITION_FORMATION_WITH_SPECIFIED_SOURCE ( 'ANY', '', #86, .NOT_KNOWN. ) ;
#73 = VERTEX_POINT ( 'NONE', #181 ) ;
#74 = FACE_OUTER_BOUND ( 'NONE', #50, .T. ) ;
#75 = VERTEX_POINT ( 'NONE', #226 ) ;
#76 = PLANE ( 'NONE',  #216 ) ;
#77 = DIRECTION ( 'NONE',  ( 0.0000000000000000000, 1.000000000000000000, 0.0000000000000000000 ) ) ;
#78 = CARTESIAN_POINT ( 'NONE',  ( 1.326762908760390423E-13, -4.653657836759941941E-15, 38.00000000000000000 ) ) ;
#79 = ADVANCED_FACE ( 'NONE', ( #279, #64 ), #108, .F. ) ;
#80 = UNCERTAINTY_MEASURE_WITH_UNIT (LENGTH_MEASURE( 1.000000000000000082E-05 ), #119, 'distance_accuracy_value', 'NONE');
#81 = CYLINDRICAL_SURFACE ( 'NONE', #41, 0.2700000000000000178 ) ;
#82 = PERSON ( 'UNSPECIFIED', 'UNSPECIFIED', 'UNSPECIFIED', ('UNSPECIFIED'), ('UNSPECIFIED'), ('UNSPECIFIED') ) ;
#83 = DIRECTION ( 'NONE',  ( 4.275831445896958607E-31, 1.000000000000000000, 1.224646799147353207E-16 ) ) ;
#84 = EDGE_CURVE ( 'NONE', #22, #22, #70, .T. ) ;
#85 = DIRECTION ( 'NONE',  ( 3.491481338843133355E-15, -1.224646799147353207E-16, 1.000000000000000000 ) ) ;
#86 = PRODUCT ( '200743', '200743', '', ( #54 ) ) ;
#87 = PLANE ( 'NONE',  #48 ) ;
#88 = COORDINATED_UNIVERSAL_TIME_OFFSET ( 1, 0, .AHEAD. ) ;
#89 = CALENDAR_DATE ( 2021, 1, 12 ) ;
#90 = CONICAL_SURFACE ( 'NONE', #1, 1.200000000000003286, 0.7853981633974453924 ) ;
#91 = APPLICATION_PROTOCOL_DEFINITION ( 'international standard', 'config_control_design', 1994, #14 ) ;
#92 = ADVANCED_FACE ( 'NONE', ( #273, #247 ), #81, .T. ) ;
#93 = CARTESIAN_POINT ( 'NONE',  ( 2.094888803305880013E-14, -7.347880794884119736E-16, 6.000000000000000000 ) ) ;
#94 = COORDINATED_UNIVERSAL_TIME_OFFSET ( 1, 0, .AHEAD. ) ;
#95 = CLOSED_SHELL ( 'NONE', ( #150, #9, #15, #60 ) ) ;
#96 = VERTEX_POINT ( 'NONE', #183 ) ;
#97 =( NAMED_UNIT ( * ) SI_UNIT ( $, .STERADIAN. ) SOLID_ANGLE_UNIT ( ) );
#98 = FACE_OUTER_BOUND ( 'NONE', #49, .T. ) ;
#99 = DIRECTION ( 'NONE',  ( -3.491481338843133355E-15, 1.224646799147353207E-16, -1.000000000000000000 ) ) ;
#100 = AXIS2_PLACEMENT_3D ( 'NONE', #227, #209, #213 ) ;
#101 = DIRECTION ( 'NONE',  ( -3.491481338843133355E-15, 1.224646799147353207E-16, -1.000000000000000000 ) ) ;
#102 = LOCAL_TIME ( 8, 27, 15.00000000000000000, #65 ) ;
#103 = PLANE ( 'NONE',  #171 ) ;
#104 = EDGE_CURVE ( 'NONE', #96, #96, #62, .T. ) ;
#105 = EDGE_LOOP ( 'NONE', ( #134 ) ) ;
#106 = FACE_OUTER_BOUND ( 'NONE', #159, .T. ) ;
#107 = CC_DESIGN_PERSON_AND_ORGANIZATION_ASSIGNMENT ( #197, #44, ( #72 ) ) ;
#108 = TOROIDAL_SURFACE ( 'NONE', #267, 2.270000000000000462, 2.000000000000000000 ) ;
#109 = CC_DESIGN_PERSON_AND_ORGANIZATION_ASSIGNMENT ( #66, #115, ( #86 ) ) ;
#110 = ORIENTED_EDGE ( 'NONE', *, *, #5, .T. ) ;
#111 = CALENDAR_DATE ( 2021, 1, 12 ) ;
#112 = VERTEX_POINT ( 'NONE', #46 ) ;
#113 = AXIS2_PLACEMENT_3D ( 'NONE', #133, #39, #83 ) ;
#114 = CIRCLE ( 'NONE', #148, 0.3003844939755811461 ) ;
#115 = PERSON_AND_ORGANIZATION_ROLE ( 'design_owner' ) ;
#116 = PERSON_AND_ORGANIZATION_ROLE ( 'classification_officer' ) ;
#117 = VERTEX_POINT ( 'NONE', #269 ) ;
#118 = CALENDAR_DATE ( 2021, 1, 12 ) ;
#119 =( LENGTH_UNIT ( ) NAMED_UNIT ( * ) SI_UNIT ( .MILLI., .METRE. ) );
#120 = DIRECTION ( 'NONE',  ( 3.566536934050446610E-31, 1.000000000000000000, 1.003890900449543914E-16 ) ) ;
#121 = DIRECTION ( 'NONE',  ( 3.491481338843133355E-15, -1.224646799147353207E-16, 1.000000000000000000 ) ) ;
#122 = EDGE_CURVE ( 'NONE', #117, #117, #11, .T. ) ;
#123 = DIRECTION ( 'NONE',  ( 0.0000000000000000000, 1.000000000000000000, 0.0000000000000000000 ) ) ;
#124 = FACE_OUTER_BOUND ( 'NONE', #125, .T. ) ;
#125 = EDGE_LOOP ( 'NONE', ( #68 ) ) ;
#126 = MANIFOLD_SOLID_BREP ( 'Corps-Déplacer/Copier1[2]', #95 ) ;
#127 = AXIS2_PLACEMENT_3D ( 'NONE', #167, #32, #36 ) ;
#128 = ORIENTED_EDGE ( 'NONE', *, *, #156, .T. ) ;
#129 = CC_DESIGN_PERSON_AND_ORGANIZATION_ASSIGNMENT ( #18, #116, ( #147 ) ) ;
#130 = ORIENTED_EDGE ( 'NONE', *, *, #84, .F. ) ;
#131 = EDGE_CURVE ( 'NONE', #112, #112, #16, .T. ) ;
#132 = DIRECTION ( 'NONE',  ( -3.491481338843133355E-15, 1.224646799147353207E-16, -1.000000000000000000 ) ) ;
#133 = CARTESIAN_POINT ( 'NONE',  ( -9.076092467623716056E-32, 3.183464698947418450E-33, -2.599496198547916694E-17 ) ) ;
#134 = ORIENTED_EDGE ( 'NONE', *, *, #122, .T. ) ;
#135 = ORIENTED_EDGE ( 'NONE', *, *, #33, .T. ) ;
#136 = APPROVAL_DATE_TIME ( #258, #177 ) ;
#137 = AXIS2_PLACEMENT_3D ( 'NONE', #234, #132, #204 ) ;
#138 = CARTESIAN_POINT ( 'NONE',  ( 1.396592535537253342E-14, 0.2699999999999993516, 4.000000000000000000 ) ) ;
#139 = PERSON_AND_ORGANIZATION_ROLE ( 'creator' ) ;
#140 =( GEOMETRIC_REPRESENTATION_CONTEXT ( 3 ) GLOBAL_UNCERTAINTY_ASSIGNED_CONTEXT ( ( #80 ) ) GLOBAL_UNIT_ASSIGNED_CONTEXT ( ( #119, #51, #97 ) ) REPRESENTATION_CONTEXT ( 'NONE', 'WORKASPACE' ) );
#141 = VERTEX_POINT ( 'NONE', #225 ) ;
#142 = CC_DESIGN_PERSON_AND_ORGANIZATION_ASSIGNMENT ( #200, #2, ( #72 ) ) ;
#143 = DIRECTION ( 'NONE',  ( 0.0000000000000000000, 1.000000000000000000, 0.0000000000000000000 ) ) ;
#144 = DIRECTION ( 'NONE',  ( 3.491481338843133355E-15, -1.224646799147353207E-16, 1.000000000000000000 ) ) ;
#145 = FACE_OUTER_BOUND ( 'NONE', #53, .T. ) ;
#146 = AXIS2_PLACEMENT_3D ( 'NONE', #278, #85, #149 ) ;
#147 = SECURITY_CLASSIFICATION ( '', '', #283 ) ;
#148 = AXIS2_PLACEMENT_3D ( 'NONE', #168, #55, #143 ) ;
#149 = DIRECTION ( 'NONE',  ( -3.566536934050446610E-31, -1.000000000000000000, -1.003890900449543914E-16 ) ) ;
#150 = ADVANCED_FACE ( 'NONE', ( #56 ), #76, .F. ) ;
#151 = DIRECTION ( 'NONE',  ( 4.275831445896958607E-31, 1.000000000000000000, 1.224646799147353454E-16 ) ) ;
#152 = CYLINDRICAL_SURFACE ( 'NONE', #253, 0.2699999999999995182 ) ;
#153 = DATE_AND_TIME ( #89, #194 ) ;
#154 = ORIENTED_EDGE ( 'NONE', *, *, #156, .F. ) ;
#155 = CALENDAR_DATE ( 2021, 1, 12 ) ;
#156 = EDGE_CURVE ( 'NONE', #175, #175, #37, .T. ) ;
#157 = PERSON_AND_ORGANIZATION ( #82, #189 ) ;
#158 = PERSON_AND_ORGANIZATION ( #82, #189 ) ;
#159 = EDGE_LOOP ( 'NONE', ( #245 ) ) ;
#160 = DIRECTION ( 'NONE',  ( 0.0000000000000000000, 1.000000000000000000, 0.0000000000000000000 ) ) ;
#161 = AXIS2_PLACEMENT_3D ( 'NONE', #93, #264, #160 ) ;
#162 = EDGE_LOOP ( 'NONE', ( #110 ) ) ;
#163 = PERSON_AND_ORGANIZATION ( #82, #189 ) ;
#164 = AXIS2_PLACEMENT_3D ( 'NONE', #211, #12, #120 ) ;
#165 = DESIGN_CONTEXT ( 'detailed design', #208, 'design' ) ;
#166 = DIRECTION ( 'NONE',  ( 4.275831445896957731E-31, 1.000000000000000000, 1.224646799147353207E-16 ) ) ;
#167 = CARTESIAN_POINT ( 'NONE',  ( 4.591526291301602115E-14, -1.610490628515444782E-15, 13.15065396518188834 ) ) ;
#168 = CARTESIAN_POINT ( 'NONE',  ( 2.216146677675516400E-14, -7.773196164799257849E-16, 6.347296355333847728 ) ) ;
#169 = PRODUCT_DEFINITION_SHAPE ( 'NONE', 'NONE',  #58 ) ;
#170 = CARTESIAN_POINT ( 'NONE',  ( 0.0000000000000000000, 0.0000000000000000000, 0.0000000000000000000 ) ) ;
#171 = AXIS2_PLACEMENT_3D ( 'NONE', #187, #121, #207 ) ;
#172 = PERSON_AND_ORGANIZATION ( #82, #189 ) ;
#173 = CC_DESIGN_APPROVAL ( #256, ( #147 ) ) ;
#174 = DATE_AND_TIME ( #155, #277 ) ;
#175 = VERTEX_POINT ( 'NONE', #224 ) ;
#176 = EDGE_LOOP ( 'NONE', ( #135 ) ) ;
#177 = APPROVAL ( #47, 'UNSPECIFIED' ) ;
#178 = ADVANCED_FACE ( 'NONE', ( #124, #246 ), #90, .T. ) ;
#179 = ORIENTED_EDGE ( 'NONE', *, *, #222, .T. ) ;
#180 = APPROVAL_STATUS ( 'not_yet_approved' ) ;
#181 = CARTESIAN_POINT ( 'NONE',  ( 2.216146677675516400E-14, 0.3003844939755803689, 6.347296355333847728 ) ) ;
#182 = ORIENTED_EDGE ( 'NONE', *, *, #272, .T. ) ;
#183 = CARTESIAN_POINT ( 'NONE',  ( 1.316288464743861212E-13, 1.499999999999998668, 37.69999999999999574 ) ) ;
#184 = DIRECTION ( 'NONE',  ( -3.491481338843133355E-15, 1.224646799147353207E-16, -1.000000000000000000 ) ) ;
#185 = AXIS2_PLACEMENT_3D ( 'NONE', #186, #101, #276 ) ;
#186 = CARTESIAN_POINT ( 'NONE',  ( 1.396592535537253342E-14, -4.898587196589412829E-16, 4.000000000000000000 ) ) ;
#187 = CARTESIAN_POINT ( 'NONE',  ( 1.396592535537253342E-14, 2.024675706593499286E-33, 4.000000000000000000 ) ) ;
#188 = CARTESIAN_POINT ( 'NONE',  ( 2.094888803305880013E-14, -8.673617379884035472E-16, 6.000000000000000000 ) ) ;
#189 = ORGANIZATION ( 'UNSPECIFIED', 'UNSPECIFIED', '' ) ;
#190 = EDGE_LOOP ( 'NONE', ( #280 ) ) ;
#191 = ADVANCED_FACE ( 'NONE', ( #98 ), #103, .F. ) ;
#192 = FACE_OUTER_BOUND ( 'NONE', #219, .T. ) ;
#193 = CIRCLE ( 'NONE', #161, 0.2700000000000001843 ) ;
#194 = LOCAL_TIME ( 8, 27, 15.00000000000000000, #19 ) ;
#195 = ADVANCED_BREP_SHAPE_REPRESENTATION ( '200743', ( #31, #126, #251 ), #140 ) ;
#196 = EDGE_LOOP ( 'NONE', ( #130 ) ) ;
#197 = PERSON_AND_ORGANIZATION ( #82, #189 ) ;
#198 = APPLICATION_PROTOCOL_DEFINITION ( 'international standard', 'config_control_design', 1994, #208 ) ;
#199 = CC_DESIGN_APPROVAL ( #177, ( #72 ) ) ;
#200 = PERSON_AND_ORGANIZATION ( #82, #189 ) ;
#201 = PLANE ( 'NONE',  #233 ) ;
#202 = DATE_AND_TIME ( #118, #34 ) ;
#203 = CIRCLE ( 'NONE', #113, 0.2122649730810375057 ) ;
#204 = DIRECTION ( 'NONE',  ( 0.0000000000000000000, 1.000000000000000000, 0.0000000000000000000 ) ) ;
#205 = VERTEX_POINT ( 'NONE', #138 ) ;
#206 = DIRECTION ( 'NONE',  ( 3.491481338843133355E-15, -1.224646799147353207E-16, 1.000000000000000000 ) ) ;
#207 = DIRECTION ( 'NONE',  ( -4.275831445896958607E-31, -1.000000000000000000, -1.224646799147353207E-16 ) ) ;
#208 = APPLICATION_CONTEXT ( 'configuration controlled 3d designs of mechanical parts and assemblies' ) ;
#209 = DIRECTION ( 'NONE',  ( 3.491481338843133355E-15, -1.224646799147353207E-16, 1.000000000000000000 ) ) ;
#210 = AXIS2_PLACEMENT_3D ( 'NONE', #13, #184, #77 ) ;
#211 = CARTESIAN_POINT ( 'NONE',  ( 3.491481338843132862E-16, -1.224646799147352961E-17, 0.09999999999999997780 ) ) ;
#212 = PRODUCT_RELATED_PRODUCT_CATEGORY ( 'detail', '', ( #86 ) ) ;
#213 = DIRECTION ( 'NONE',  ( 0.0000000000000000000, -1.000000000000000000, 0.0000000000000000000 ) ) ;
#214 = CC_DESIGN_DATE_AND_TIME_ASSIGNMENT ( #202, #248, ( #58 ) ) ;
#215 = CLOSED_SHELL ( 'NONE', ( #191, #92, #79, #231, #257, #178, #28 ) ) ;
#216 = AXIS2_PLACEMENT_3D ( 'NONE', #229, #144, #38 ) ;
#217 = CC_DESIGN_PERSON_AND_ORGANIZATION_ASSIGNMENT ( #163, #139, ( #58 ) ) ;
#218 = FACE_BOUND ( 'NONE', #236, .T. ) ;
#219 = EDGE_LOOP ( 'NONE', ( #128 ) ) ;
#220 = DIRECTION ( 'NONE',  ( 4.275831445896958607E-31, 1.000000000000000000, 1.224646799147353207E-16 ) ) ;
#221 = CARTESIAN_POINT ( 'NONE',  ( 0.0000000000000000000, 0.0000000000000000000, 0.0000000000000000000 ) ) ;
#222 = EDGE_CURVE ( 'NONE', #73, #73, #114, .T. ) ;
#223 = AXIS2_PLACEMENT_3D ( 'NONE', #78, #270, #228 ) ;
#224 = CARTESIAN_POINT ( 'NONE',  ( 3.491481338843133848E-16, 0.2699999999999992406, 0.1000000000000000056 ) ) ;
#225 = CARTESIAN_POINT ( 'NONE',  ( 2.094888803305880013E-14, 0.2699999999999994071, 6.000000000000000000 ) ) ;
#226 = CARTESIAN_POINT ( 'NONE',  ( 0.0000000000000000000, 0.2122649730810375057, 0.0000000000000000000 ) ) ;
#227 = CARTESIAN_POINT ( 'NONE',  ( 4.591526291301602115E-14, -1.610490628515444782E-15, 13.15065396518188834 ) ) ;
#228 = DIRECTION ( 'NONE',  ( 0.0000000000000000000, 1.000000000000000000, 0.0000000000000000000 ) ) ;
#229 = CARTESIAN_POINT ( 'NONE',  ( -4.538046233811858028E-32, 1.591732349473709225E-33, -1.299748099273958347E-17 ) ) ;
#230 = APPROVAL_PERSON_ORGANIZATION ( #157, #260, #239 ) ;
#231 = ADVANCED_FACE ( 'NONE', ( #275, #249 ), #21, .T. ) ;
#232 = EDGE_LOOP ( 'NONE', ( #263 ) ) ;
#233 = AXIS2_PLACEMENT_3D ( 'NONE', #244, #206, #67 ) ;
#234 = CARTESIAN_POINT ( 'NONE',  ( 1.396592535537253342E-14, -4.898587196589412829E-16, 4.000000000000000000 ) ) ;
#235 = CARTESIAN_POINT ( 'NONE',  ( 0.0000000000000000000, 0.0000000000000000000, 0.0000000000000000000 ) ) ;
#236 = EDGE_LOOP ( 'NONE', ( #25 ) ) ;
#237 = DATE_TIME_ROLE ( 'classification_date' ) ;
#238 = EDGE_LOOP ( 'NONE', ( #154 ) ) ;
#239 = APPROVAL_ROLE ( '' ) ;
#240 = AXIS2_PLACEMENT_3D ( 'NONE', #242, #26, #262 ) ;
#241 = CYLINDRICAL_SURFACE ( 'NONE', #240, 1.500000000000000000 ) ;
#242 = CARTESIAN_POINT ( 'NONE',  ( 0.0000000000000000000, 0.0000000000000000000, 0.0000000000000000000 ) ) ;
#243 = EDGE_LOOP ( 'NONE', ( #261 ) ) ;
#244 = CARTESIAN_POINT ( 'NONE',  ( 1.396592535537253342E-14, 2.024675706593499286E-33, 4.000000000000000000 ) ) ;
#245 = ORIENTED_EDGE ( 'NONE', *, *, #131, .F. ) ;
#246 = FACE_BOUND ( 'NONE', #190, .T. ) ;
#247 = FACE_OUTER_BOUND ( 'NONE', #29, .T. ) ;
#248 = DATE_TIME_ROLE ( 'creation_date' ) ;
#249 = FACE_OUTER_BOUND ( 'NONE', #105, .T. ) ;
#250 = DIRECTION ( 'NONE',  ( 4.400212215935645358E-31, 1.000000000000000000, 1.224646799147353207E-16 ) ) ;
#251 = AXIS2_PLACEMENT_3D ( 'NONE', #221, #4, #266 ) ;
#252 = FACE_OUTER_BOUND ( 'NONE', #238, .T. ) ;
#253 = AXIS2_PLACEMENT_3D ( 'NONE', #235, #281, #151 ) ;
#254 = CARTESIAN_POINT ( 'NONE',  ( 1.326762908760390423E-13, 8.998558695971103225E-33, 38.00000000000000000 ) ) ;
#255 = APPROVAL_STATUS ( 'not_yet_approved' ) ;
#256 = APPROVAL ( #255, 'UNSPECIFIED' ) ;
#257 = ADVANCED_FACE ( 'NONE', ( #145, #10 ), #241, .T. ) ;
#258 = DATE_AND_TIME ( #111, #102 ) ;
#259 = APPROVAL_DATE_TIME ( #153, #256 ) ;
#260 = APPROVAL ( #180, 'UNSPECIFIED' ) ;
#261 = ORIENTED_EDGE ( 'NONE', *, *, #222, .F. ) ;
#262 = DIRECTION ( 'NONE',  ( 4.275831445896959482E-31, 1.000000000000000000, 1.224646799147353207E-16 ) ) ;
#263 = ORIENTED_EDGE ( 'NONE', *, *, #272, .F. ) ;
#264 = DIRECTION ( 'NONE',  ( -3.491481338843133355E-15, 1.224646799147353207E-16, -1.000000000000000000 ) ) ;
#265 = ORIENTED_EDGE ( 'NONE', *, *, #84, .T. ) ;
#266 = DIRECTION ( 'NONE',  ( 1.000000000000000000, 0.0000000000000000000, 0.0000000000000000000 ) ) ;
#267 = AXIS2_PLACEMENT_3D ( 'NONE', #188, #99, #250 ) ;
#268 = ORIENTED_EDGE ( 'NONE', *, *, #104, .T. ) ;
#269 = CARTESIAN_POINT ( 'NONE',  ( 4.591526291301602115E-14, 1.499999999999995559, 13.15065396518188834 ) ) ;
#270 = DIRECTION ( 'NONE',  ( -3.491481338843133355E-15, 1.224646799147353207E-16, -1.000000000000000000 ) ) ;
#271 = CIRCLE ( 'NONE', #137, 0.2699999999999998512 ) ;
#272 = EDGE_CURVE ( 'NONE', #141, #141, #193, .T. ) ;
#273 = FACE_OUTER_BOUND ( 'NONE', #196, .T. ) ;
#274 = APPROVAL_PERSON_ORGANIZATION ( #158, #177, #63 ) ;
#275 = FACE_BOUND ( 'NONE', #243, .T. ) ;
#276 = DIRECTION ( 'NONE',  ( 0.0000000000000000000, 1.000000000000000000, 0.0000000000000000000 ) ) ;
#277 = LOCAL_TIME ( 8, 27, 15.00000000000000000, #88 ) ;
#278 = CARTESIAN_POINT ( 'NONE',  ( 3.491481338843132862E-16, -1.224646799147352961E-17, 0.09999999999999997780 ) ) ;
#279 = FACE_OUTER_BOUND ( 'NONE', #232, .T. ) ;
#280 = ORIENTED_EDGE ( 'NONE', *, *, #131, .T. ) ;
#281 = DIRECTION ( 'NONE',  ( -3.491481338843133355E-15, 1.224646799147353207E-16, -1.000000000000000000 ) ) ;
#282 = DIRECTION ( 'NONE',  ( -3.491481338843133355E-15, 1.224646799147353207E-16, -1.000000000000000000 ) ) ;
#283 = SECURITY_CLASSIFICATION_LEVEL ( 'unclassified' ) ;
ENDSEC;
END-ISO-10303-21;
