ISO-10303-21;
HEADER;
FILE_DESCRIPTION (( 'STEP AP203' ),
    '1' );
FILE_NAME ('200742.step',
    '2021-12-01T07:27:15',
    ( '' ),
    ( '' ),
    'SwSTEP 2.0',
    'SolidWorks 2019',
    '' );
FILE_SCHEMA (( 'CONFIG_CONTROL_DESIGN' ));
ENDSEC;

DATA;
#1 = APPROVAL_DATE_TIME ( #19, #183 ) ;
#2 = MANIFOLD_SOLID_BREP ( 'Corps-Déplacer/Copier1[2]', #243 ) ;
#3 = APPROVAL_DATE_TIME ( #257, #142 ) ;
#4 = APPROVAL_ROLE ( '' ) ;
#5 = CC_DESIGN_APPROVAL ( #109, ( #269 ) ) ;
#6 = PERSON_AND_ORGANIZATION ( #280, #153 ) ;
#7 = CIRCLE ( 'NONE', #252, 0.2649999999999992362 ) ;
#8 = DIRECTION ( 'NONE',  ( -4.275831445896958607E-31, -1.000000000000000000, -1.224646799147353207E-16 ) ) ;
#9 = DIRECTION ( 'NONE',  ( 3.491481338843133355E-15, -1.224646799147353207E-16, 1.000000000000000000 ) ) ;
#10 = FACE_OUTER_BOUND ( 'NONE', #52, .T. ) ;
#11 = CARTESIAN_POINT ( 'NONE',  ( 2.216146677675516085E-14, -7.773196164799256863E-16, 6.347296355333846840 ) ) ;
#12 = AXIS2_PLACEMENT_3D ( 'NONE', #126, #152, #195 ) ;
#13 = VERTEX_POINT ( 'NONE', #49 ) ;
#14 = CARTESIAN_POINT ( 'NONE',  ( 0.0000000000000000000, 0.0000000000000000000, 0.0000000000000000000 ) ) ;
#15 = PERSON_AND_ORGANIZATION ( #280, #153 ) ;
#16 = APPROVAL_PERSON_ORGANIZATION ( #227, #109, #140 ) ;
#17 = AXIS2_PLACEMENT_3D ( 'NONE', #124, #63, #147 ) ;
#18 = ADVANCED_FACE ( 'NONE', ( #21, #58 ), #172, .F. ) ;
#19 = DATE_AND_TIME ( #208, #103 ) ;
#20 = CARTESIAN_POINT ( 'NONE',  ( 2.094888803305880013E-14, -8.673617379884035472E-16, 6.000000000000000000 ) ) ;
#21 = FACE_OUTER_BOUND ( 'NONE', #277, .T. ) ;
#22 = PERSON_AND_ORGANIZATION ( #280, #153 ) ;
#23 = LOCAL_TIME ( 8, 27, 15.00000000000000000, #157 ) ;
#24 = FACE_OUTER_BOUND ( 'NONE', #176, .T. ) ;
#25 = APPROVAL_PERSON_ORGANIZATION ( #115, #183, #44 ) ;
#26 = DIRECTION ( 'NONE',  ( -3.491481338843133355E-15, 1.224646799147353207E-16, -1.000000000000000000 ) ) ;
#27 = ORIENTED_EDGE ( 'NONE', *, *, #166, .F. ) ;
#28 = FACE_BOUND ( 'NONE', #179, .T. ) ;
#29 = ADVANCED_FACE ( 'NONE', ( #144, #41 ), #180, .T. ) ;
#30 = FACE_OUTER_BOUND ( 'NONE', #198, .T. ) ;
#31 = ORIENTED_EDGE ( 'NONE', *, *, #121, .T. ) ;
#32 = CARTESIAN_POINT ( 'NONE',  ( 3.491481338843134341E-16, 0.2649999999999992362, 0.1000000000000000194 ) ) ;
#33 = COORDINATED_UNIVERSAL_TIME_OFFSET ( 1, 0, .AHEAD. ) ;
#34 = ADVANCED_BREP_SHAPE_REPRESENTATION ( '200742', ( #85, #2, #83 ), #209 ) ;
#35 = ORIENTED_EDGE ( 'NONE', *, *, #224, .F. ) ;
#36 = DATE_TIME_ROLE ( 'creation_date' ) ;
#37 = ORIENTED_EDGE ( 'NONE', *, *, #236, .T. ) ;
#38 = PERSON_AND_ORGANIZATION_ROLE ( 'classification_officer' ) ;
#39 = LOCAL_TIME ( 8, 27, 15.00000000000000000, #33 ) ;
#40 = SHAPE_DEFINITION_REPRESENTATION ( #188, #34 ) ;
#41 = FACE_OUTER_BOUND ( 'NONE', #219, .T. ) ;
#42 = EDGE_CURVE ( 'NONE', #218, #218, #46, .T. ) ;
#43 = CC_DESIGN_SECURITY_CLASSIFICATION ( #165, ( #233 ) ) ;
#44 = APPROVAL_ROLE ( '' ) ;
#45 = DIRECTION ( 'NONE',  ( -3.491481338843133355E-15, 1.224646799147353207E-16, -1.000000000000000000 ) ) ;
#46 = CIRCLE ( 'NONE', #81, 0.2649999999999996803 ) ;
#47 = DIRECTION ( 'NONE',  ( 0.0000000000000000000, 1.000000000000000000, 0.0000000000000000000 ) ) ;
#48 = DIRECTION ( 'NONE',  ( -3.491481338843133355E-15, 1.224646799147353207E-16, -1.000000000000000000 ) ) ;
#49 = CARTESIAN_POINT ( 'NONE',  ( 4.601426878621861180E-14, 1.499999999999995559, 13.17901037427997935 ) ) ;
#50 = FACE_OUTER_BOUND ( 'NONE', #68, .T. ) ;
#51 = DIRECTION ( 'NONE',  ( -4.275831445896958607E-31, -1.000000000000000000, -1.224646799147353207E-16 ) ) ;
#52 = EDGE_LOOP ( 'NONE', ( #156 ) ) ;
#53 =( NAMED_UNIT ( * ) SI_UNIT ( $, .STERADIAN. ) SOLID_ANGLE_UNIT ( ) );
#54 = CARTESIAN_POINT ( 'NONE',  ( 4.601426878621861180E-14, -1.613963287079173966E-15, 13.17901037427997935 ) ) ;
#55 = AXIS2_PLACEMENT_3D ( 'NONE', #102, #48, #246 ) ;
#56 = ORIENTED_EDGE ( 'NONE', *, *, #42, .F. ) ;
#57 = CALENDAR_DATE ( 2021, 1, 12 ) ;
#58 = FACE_OUTER_BOUND ( 'NONE', #161, .T. ) ;
#59 = AXIS2_PLACEMENT_3D ( 'NONE', #54, #276, #237 ) ;
#60 = PERSON_AND_ORGANIZATION_ROLE ( 'creator' ) ;
#61 = CARTESIAN_POINT ( 'NONE',  ( 3.491481338843133355E-16, -1.224646799147353115E-17, 0.09999999999999999167 ) ) ;
#62 = CC_DESIGN_PERSON_AND_ORGANIZATION_ASSIGNMENT ( #6, #164, ( #233 ) ) ;
#63 = DIRECTION ( 'NONE',  ( -3.491481338843133355E-15, 1.224646799147353207E-16, -1.000000000000000000 ) ) ;
#64 = DIRECTION ( 'NONE',  ( 4.275831445896958607E-31, 1.000000000000000000, 1.224646799147353207E-16 ) ) ;
#65 = CIRCLE ( 'NONE', #125, 0.2072649730810375568 ) ;
#66 = DIRECTION ( 'NONE',  ( 4.275831445896958607E-31, 1.000000000000000000, 1.224646799147352961E-16 ) ) ;
#67 = ADVANCED_FACE ( 'NONE', ( #131, #50 ), #225, .T. ) ;
#68 = EDGE_LOOP ( 'NONE', ( #31 ) ) ;
#69 = DIRECTION ( 'NONE',  ( 4.275831445896958607E-31, 1.000000000000000000, 1.224646799147353207E-16 ) ) ;
#70 = DIRECTION ( 'NONE',  ( -3.491481338843133355E-15, 1.224646799147353207E-16, -1.000000000000000000 ) ) ;
#71 = CARTESIAN_POINT ( 'NONE',  ( 1.316288464743861212E-13, -4.616918432785521081E-15, 37.69999999999999574 ) ) ;
#72 = EDGE_LOOP ( 'NONE', ( #158 ) ) ;
#73 = DIRECTION ( 'NONE',  ( 4.275831445896959482E-31, 1.000000000000000000, 1.224646799147353207E-16 ) ) ;
#74 = EDGE_CURVE ( 'NONE', #13, #13, #100, .T. ) ;
#75 = EDGE_LOOP ( 'NONE', ( #35 ) ) ;
#76 = PERSON_AND_ORGANIZATION_ROLE ( 'design_owner' ) ;
#77 = PERSON_AND_ORGANIZATION_ROLE ( 'creator' ) ;
#78 = EDGE_CURVE ( 'NONE', #129, #129, #7, .T. ) ;
#79 = VERTEX_POINT ( 'NONE', #250 ) ;
#80 = AXIS2_PLACEMENT_3D ( 'NONE', #84, #191, #47 ) ;
#81 = AXIS2_PLACEMENT_3D ( 'NONE', #134, #70, #244 ) ;
#82 = ADVANCED_FACE ( 'NONE', ( #270, #190 ), #122, .T. ) ;
#83 = AXIS2_PLACEMENT_3D ( 'NONE', #14, #95, #274 ) ;
#84 = CARTESIAN_POINT ( 'NONE',  ( 2.094888803305880013E-14, -7.347880794884119736E-16, 6.000000000000000000 ) ) ;
#85 = MANIFOLD_SOLID_BREP ( 'Corps-Déplacer/Copier1[1]', #137 ) ;
#86 = CARTESIAN_POINT ( 'NONE',  ( 0.0000000000000000000, 0.0000000000000000000, 0.0000000000000000000 ) ) ;
#87 = DIRECTION ( 'NONE',  ( 3.633830083749512202E-31, 1.000000000000000000, 1.022832238193875089E-16 ) ) ;
#88 = CARTESIAN_POINT ( 'NONE',  ( 1.326762908760390423E-13, 8.998558695971103225E-33, 38.00000000000000000 ) ) ;
#89 = CARTESIAN_POINT ( 'NONE',  ( -1.359414046128677176E-31, 4.768182610018050537E-33, -3.893516574197429712E-17 ) ) ;
#90 = EDGE_LOOP ( 'NONE', ( #207 ) ) ;
#91 = VERTEX_POINT ( 'NONE', #271 ) ;
#92 = PRODUCT_RELATED_PRODUCT_CATEGORY ( 'detail', '', ( #97 ) ) ;
#93 = DIRECTION ( 'NONE',  ( -3.491481338843133355E-15, 1.224646799147353207E-16, -1.000000000000000000 ) ) ;
#94 = AXIS2_PLACEMENT_3D ( 'NONE', #194, #9, #8 ) ;
#95 = DIRECTION ( 'NONE',  ( 0.0000000000000000000, 0.0000000000000000000, 1.000000000000000000 ) ) ;
#96 = APPROVAL_DATE_TIME ( #199, #109 ) ;
#97 = PRODUCT ( '200742', '200742', '', ( #154 ) ) ;
#98 = AXIS2_PLACEMENT_3D ( 'NONE', #241, #127, #69 ) ;
#99 = PERSON_AND_ORGANIZATION ( #280, #153 ) ;
#100 = CIRCLE ( 'NONE', #263, 1.499999999999996891 ) ;
#101 = ADVANCED_FACE ( 'NONE', ( #167 ), #148, .T. ) ;
#102 = CARTESIAN_POINT ( 'NONE',  ( 1.326762908760390423E-13, -4.653657836759941941E-15, 38.00000000000000000 ) ) ;
#103 = LOCAL_TIME ( 8, 27, 15.00000000000000000, #120 ) ;
#104 = DIRECTION ( 'NONE',  ( -3.491481338843133355E-15, 1.224646799147353207E-16, -1.000000000000000000 ) ) ;
#105 = FACE_OUTER_BOUND ( 'NONE', #278, .T. ) ;
#106 = CARTESIAN_POINT ( 'NONE',  ( 1.396592535537253342E-14, 0.2649999999999991807, 4.000000000000000000 ) ) ;
#107 = AXIS2_PLACEMENT_3D ( 'NONE', #20, #163, #256 ) ;
#108 = VERTEX_POINT ( 'NONE', #197 ) ;
#109 = APPROVAL ( #110, 'UNSPECIFIED' ) ;
#110 = APPROVAL_STATUS ( 'not_yet_approved' ) ;
#111 = EDGE_LOOP ( 'NONE', ( #56 ) ) ;
#112 = ORIENTED_EDGE ( 'NONE', *, *, #166, .T. ) ;
#113 = AXIS2_PLACEMENT_3D ( 'NONE', #260, #254, #234 ) ;
#114 = ADVANCED_FACE ( 'NONE', ( #24 ), #264, .F. ) ;
#115 = PERSON_AND_ORGANIZATION ( #280, #153 ) ;
#116 = EDGE_LOOP ( 'NONE', ( #112 ) ) ;
#117 = ORIENTED_EDGE ( 'NONE', *, *, #169, .T. ) ;
#118 = COORDINATED_UNIVERSAL_TIME_OFFSET ( 1, 0, .AHEAD. ) ;
#119 = AXIS2_PLACEMENT_3D ( 'NONE', #88, #173, #64 ) ;
#120 = COORDINATED_UNIVERSAL_TIME_OFFSET ( 1, 0, .AHEAD. ) ;
#121 = EDGE_CURVE ( 'NONE', #108, #108, #139, .T. ) ;
#122 = CONICAL_SURFACE ( 'NONE', #59, 1.499999999999996891, 0.1745329251994260089 ) ;
#123 = DATE_TIME_ROLE ( 'classification_date' ) ;
#124 = CARTESIAN_POINT ( 'NONE',  ( 1.326762908760390423E-13, -4.653657836759941941E-15, 38.00000000000000000 ) ) ;
#125 = AXIS2_PLACEMENT_3D ( 'NONE', #89, #26, #177 ) ;
#126 = CARTESIAN_POINT ( 'NONE',  ( -6.797070230643385879E-32, 2.384091305009025269E-33, -1.946758287098714856E-17 ) ) ;
#127 = DIRECTION ( 'NONE',  ( -3.491481338843133355E-15, 1.224646799147353207E-16, -1.000000000000000000 ) ) ;
#128 = CC_DESIGN_PERSON_AND_ORGANIZATION_ASSIGNMENT ( #22, #60, ( #233 ) ) ;
#129 = VERTEX_POINT ( 'NONE', #32 ) ;
#130 = AXIS2_PLACEMENT_3D ( 'NONE', #71, #104, #239 ) ;
#131 = FACE_OUTER_BOUND ( 'NONE', #249, .T. ) ;
#132 = CARTESIAN_POINT ( 'NONE',  ( 1.396592535537253342E-14, -4.898587196589412829E-16, 4.000000000000000000 ) ) ;
#133 = DIRECTION ( 'NONE',  ( -3.491481338843133355E-15, 1.224646799147353207E-16, -1.000000000000000000 ) ) ;
#134 = CARTESIAN_POINT ( 'NONE',  ( 1.396592535537253342E-14, -4.898587196589412829E-16, 4.000000000000000000 ) ) ;
#135 = VERTEX_POINT ( 'NONE', #182 ) ;
#136 = APPLICATION_PROTOCOL_DEFINITION ( 'international standard', 'config_control_design', 1994, #255 ) ;
#137 = CLOSED_SHELL ( 'NONE', ( #174, #253, #18, #82, #67, #212, #217 ) ) ;
#138 = EDGE_LOOP ( 'NONE', ( #247 ) ) ;
#139 = CIRCLE ( 'NONE', #130, 1.500000000000003331 ) ;
#140 = APPROVAL_ROLE ( '' ) ;
#141 = APPLICATION_CONTEXT ( 'configuration controlled 3d designs of mechanical parts and assemblies' ) ;
#142 = APPROVAL ( #210, 'UNSPECIFIED' ) ;
#143 = COORDINATED_UNIVERSAL_TIME_OFFSET ( 1, 0, .AHEAD. ) ;
#144 = FACE_BOUND ( 'NONE', #138, .T. ) ;
#145 = AXIS2_PLACEMENT_3D ( 'NONE', #11, #45, #268 ) ;
#146 = DESIGN_CONTEXT ( 'detailed design', #255, 'design' ) ;
#147 = DIRECTION ( 'NONE',  ( 0.0000000000000000000, 1.000000000000000000, 0.0000000000000000000 ) ) ;
#148 = PLANE ( 'NONE',  #94 ) ;
#149 = CYLINDRICAL_SURFACE ( 'NONE', #98, 0.2649999999999994582 ) ;
#150 = CC_DESIGN_DATE_AND_TIME_ASSIGNMENT ( #230, #36, ( #269 ) ) ;
#151 = DIRECTION ( 'NONE',  ( 3.491481338843133355E-15, -1.224646799147353207E-16, 1.000000000000000000 ) ) ;
#152 = DIRECTION ( 'NONE',  ( 3.491481338843133355E-15, -1.224646799147353207E-16, 1.000000000000000000 ) ) ;
#153 = ORGANIZATION ( 'UNSPECIFIED', 'UNSPECIFIED', '' ) ;
#154 = MECHANICAL_CONTEXT ( 'NONE', #141, 'mechanical' ) ;
#155 = CARTESIAN_POINT ( 'NONE',  ( 2.094888803305880013E-14, 0.2649999999999991807, 6.000000000000000000 ) ) ;
#156 = ORIENTED_EDGE ( 'NONE', *, *, #224, .T. ) ;
#157 = COORDINATED_UNIVERSAL_TIME_OFFSET ( 1, 0, .AHEAD. ) ;
#158 = ORIENTED_EDGE ( 'NONE', *, *, #42, .T. ) ;
#159 = LOCAL_TIME ( 8, 27, 15.00000000000000000, #143 ) ;
#160 = CIRCLE ( 'NONE', #145, 0.2953844939755814747 ) ;
#161 = EDGE_LOOP ( 'NONE', ( #117 ) ) ;
#162 = EDGE_CURVE ( 'NONE', #91, #91, #192, .T. ) ;
#163 = DIRECTION ( 'NONE',  ( -3.491481338843133355E-15, 1.224646799147353207E-16, -1.000000000000000000 ) ) ;
#164 = PERSON_AND_ORGANIZATION_ROLE ( 'design_supplier' ) ;
#165 = SECURITY_CLASSIFICATION ( '', '', #259 ) ;
#166 = EDGE_CURVE ( 'NONE', #223, #223, #175, .T. ) ;
#167 = FACE_OUTER_BOUND ( 'NONE', #111, .T. ) ;
#168 = AXIS2_PLACEMENT_3D ( 'NONE', #220, #151, #51 ) ;
#169 = EDGE_CURVE ( 'NONE', #135, #135, #160, .T. ) ;
#170 = PLANE ( 'NONE',  #168 ) ;
#171 = DIRECTION ( 'NONE',  ( -3.491481338843133355E-15, 1.224646799147353207E-16, -1.000000000000000000 ) ) ;
#172 = TOROIDAL_SURFACE ( 'NONE', #107, 2.265000000000000124, 2.000000000000000000 ) ;
#173 = DIRECTION ( 'NONE',  ( -3.491481338843133355E-15, 1.224646799147353207E-16, -1.000000000000000000 ) ) ;
#174 = ADVANCED_FACE ( 'NONE', ( #10 ), #170, .F. ) ;
#175 = CIRCLE ( 'NONE', #80, 0.2649999999999999578 ) ;
#176 = EDGE_LOOP ( 'NONE', ( #37 ) ) ;
#177 = DIRECTION ( 'NONE',  ( 4.275831445896958607E-31, 1.000000000000000000, 1.224646799147353207E-16 ) ) ;
#178 = FACE_OUTER_BOUND ( 'NONE', #72, .T. ) ;
#179 = EDGE_LOOP ( 'NONE', ( #204 ) ) ;
#180 = CONICAL_SURFACE ( 'NONE', #113, 0.2649999999999992362, 0.5235987755982919323 ) ;
#181 = VERTEX_POINT ( 'NONE', #283 ) ;
#182 = CARTESIAN_POINT ( 'NONE',  ( 2.216146677675516085E-14, 0.2953844939755806975, 6.347296355333846840 ) ) ;
#183 = APPROVAL ( #186, 'UNSPECIFIED' ) ;
#184 = PERSON_AND_ORGANIZATION ( #280, #153 ) ;
#185 = DIRECTION ( 'NONE',  ( -3.491481338843133355E-15, 1.224646799147353207E-16, -1.000000000000000000 ) ) ;
#186 = APPROVAL_STATUS ( 'not_yet_approved' ) ;
#187 = DIRECTION ( 'NONE',  ( 0.0000000000000000000, 1.000000000000000000, 0.0000000000000000000 ) ) ;
#188 = PRODUCT_DEFINITION_SHAPE ( 'NONE', 'NONE',  #269 ) ;
#189 = CC_DESIGN_DATE_AND_TIME_ASSIGNMENT ( #231, #123, ( #165 ) ) ;
#190 = FACE_OUTER_BOUND ( 'NONE', #216, .T. ) ;
#191 = DIRECTION ( 'NONE',  ( -3.491481338843133355E-15, 1.224646799147353207E-16, -1.000000000000000000 ) ) ;
#192 = CIRCLE ( 'NONE', #55, 1.200000000000003286 ) ;
#193 = FACE_OUTER_BOUND ( 'NONE', #75, .T. ) ;
#194 = CARTESIAN_POINT ( 'NONE',  ( 1.396592535537253342E-14, 1.987181712026951546E-33, 4.000000000000000000 ) ) ;
#195 = DIRECTION ( 'NONE',  ( -4.275831445896958607E-31, -1.000000000000000000, -1.224646799147353207E-16 ) ) ;
#196 = ORIENTED_EDGE ( 'NONE', *, *, #169, .F. ) ;
#197 = CARTESIAN_POINT ( 'NONE',  ( 1.316288464743861212E-13, 1.499999999999998668, 37.69999999999999574 ) ) ;
#198 = EDGE_LOOP ( 'NONE', ( #222 ) ) ;
#199 = DATE_AND_TIME ( #203, #39 ) ;
#200 = EDGE_LOOP ( 'NONE', ( #196 ) ) ;
#201 = APPLICATION_PROTOCOL_DEFINITION ( 'international standard', 'config_control_design', 1994, #141 ) ;
#202 = APPROVAL_PERSON_ORGANIZATION ( #99, #142, #4 ) ;
#203 = CALENDAR_DATE ( 2021, 1, 12 ) ;
#204 = ORIENTED_EDGE ( 'NONE', *, *, #162, .T. ) ;
#205 =( NAMED_UNIT ( * ) PLANE_ANGLE_UNIT ( ) SI_UNIT ( $, .RADIAN. ) );
#206 = CC_DESIGN_PERSON_AND_ORGANIZATION_ASSIGNMENT ( #281, #77, ( #269 ) ) ;
#207 = ORIENTED_EDGE ( 'NONE', *, *, #121, .F. ) ;
#208 = CALENDAR_DATE ( 2021, 1, 12 ) ;
#209 =( GEOMETRIC_REPRESENTATION_CONTEXT ( 3 ) GLOBAL_UNCERTAINTY_ASSIGNED_CONTEXT ( ( #262 ) ) GLOBAL_UNIT_ASSIGNED_CONTEXT ( ( #226, #205, #53 ) ) REPRESENTATION_CONTEXT ( 'NONE', 'WORKASPACE' ) );
#210 = APPROVAL_STATUS ( 'not_yet_approved' ) ;
#211 = LOCAL_TIME ( 8, 27, 15.00000000000000000, #118 ) ;
#212 = ADVANCED_FACE ( 'NONE', ( #215, #28 ), #214, .T. ) ;
#213 = DIRECTION ( 'NONE',  ( 0.0000000000000000000, 1.000000000000000000, 0.0000000000000000000 ) ) ;
#214 = CONICAL_SURFACE ( 'NONE', #17, 1.200000000000003286, 0.7853981633974453924 ) ;
#215 = FACE_OUTER_BOUND ( 'NONE', #90, .T. ) ;
#216 = EDGE_LOOP ( 'NONE', ( #229 ) ) ;
#217 = ADVANCED_FACE ( 'NONE', ( #105 ), #238, .F. ) ;
#218 = VERTEX_POINT ( 'NONE', #106 ) ;
#219 = EDGE_LOOP ( 'NONE', ( #273 ) ) ;
#220 = CARTESIAN_POINT ( 'NONE',  ( 1.396592535537253342E-14, 1.987181712026951546E-33, 4.000000000000000000 ) ) ;
#221 = AXIS2_PLACEMENT_3D ( 'NONE', #86, #171, #66 ) ;
#222 = ORIENTED_EDGE ( 'NONE', *, *, #78, .F. ) ;
#223 = VERTEX_POINT ( 'NONE', #155 ) ;
#224 = EDGE_CURVE ( 'NONE', #79, #79, #275, .T. ) ;
#225 = CYLINDRICAL_SURFACE ( 'NONE', #267, 1.500000000000000000 ) ;
#226 =( LENGTH_UNIT ( ) NAMED_UNIT ( * ) SI_UNIT ( .MILLI., .METRE. ) );
#227 = PERSON_AND_ORGANIZATION ( #280, #153 ) ;
#228 = ORIENTED_EDGE ( 'NONE', *, *, #162, .F. ) ;
#229 = ORIENTED_EDGE ( 'NONE', *, *, #74, .T. ) ;
#230 = DATE_AND_TIME ( #251, #23 ) ;
#231 = DATE_AND_TIME ( #57, #159 ) ;
#232 = CALENDAR_DATE ( 2021, 1, 12 ) ;
#233 = PRODUCT_DEFINITION_FORMATION_WITH_SPECIFIED_SOURCE ( 'ANY', '', #97, .NOT_KNOWN. ) ;
#234 = DIRECTION ( 'NONE',  ( -3.633830083749512202E-31, -1.000000000000000000, -1.022832238193875089E-16 ) ) ;
#235 = AXIS2_PLACEMENT_3D ( 'NONE', #132, #265, #213 ) ;
#236 = EDGE_CURVE ( 'NONE', #181, #181, #65, .T. ) ;
#237 = DIRECTION ( 'NONE',  ( 0.0000000000000000000, -1.000000000000000000, 0.0000000000000000000 ) ) ;
#238 = PLANE ( 'NONE',  #119 ) ;
#239 = DIRECTION ( 'NONE',  ( 0.0000000000000000000, 1.000000000000000000, 0.0000000000000000000 ) ) ;
#240 = CC_DESIGN_APPROVAL ( #142, ( #165 ) ) ;
#241 = CARTESIAN_POINT ( 'NONE',  ( 0.0000000000000000000, 0.0000000000000000000, 0.0000000000000000000 ) ) ;
#242 = CYLINDRICAL_SURFACE ( 'NONE', #221, 0.2649999999999998468 ) ;
#243 = CLOSED_SHELL ( 'NONE', ( #114, #29, #282, #101 ) ) ;
#244 = DIRECTION ( 'NONE',  ( 0.0000000000000000000, 1.000000000000000000, 0.0000000000000000000 ) ) ;
#245 = CC_DESIGN_PERSON_AND_ORGANIZATION_ASSIGNMENT ( #184, #38, ( #165 ) ) ;
#246 = DIRECTION ( 'NONE',  ( 0.0000000000000000000, 1.000000000000000000, 0.0000000000000000000 ) ) ;
#247 = ORIENTED_EDGE ( 'NONE', *, *, #236, .F. ) ;
#248 = CARTESIAN_POINT ( 'NONE',  ( 4.601426878621861180E-14, -1.613963287079173966E-15, 13.17901037427997935 ) ) ;
#249 = EDGE_LOOP ( 'NONE', ( #272 ) ) ;
#250 = CARTESIAN_POINT ( 'NONE',  ( 1.396592535537253342E-14, 0.2649999999999991807, 4.000000000000000000 ) ) ;
#251 = CALENDAR_DATE ( 2021, 1, 12 ) ;
#252 = AXIS2_PLACEMENT_3D ( 'NONE', #61, #185, #87 ) ;
#253 = ADVANCED_FACE ( 'NONE', ( #193, #266 ), #242, .T. ) ;
#254 = DIRECTION ( 'NONE',  ( 3.491481338843133355E-15, -1.224646799147353207E-16, 1.000000000000000000 ) ) ;
#255 = APPLICATION_CONTEXT ( 'configuration controlled 3d designs of mechanical parts and assemblies' ) ;
#256 = DIRECTION ( 'NONE',  ( 4.400358031609782430E-31, 1.000000000000000000, 1.224646799147353207E-16 ) ) ;
#257 = DATE_AND_TIME ( #232, #211 ) ;
#258 = CC_DESIGN_APPROVAL ( #183, ( #233 ) ) ;
#259 = SECURITY_CLASSIFICATION_LEVEL ( 'unclassified' ) ;
#260 = CARTESIAN_POINT ( 'NONE',  ( 3.491481338843133355E-16, -1.224646799147353115E-17, 0.09999999999999999167 ) ) ;
#261 = CC_DESIGN_PERSON_AND_ORGANIZATION_ASSIGNMENT ( #15, #76, ( #97 ) ) ;
#262 = UNCERTAINTY_MEASURE_WITH_UNIT (LENGTH_MEASURE( 1.000000000000000082E-05 ), #226, 'distance_accuracy_value', 'NONE');
#263 = AXIS2_PLACEMENT_3D ( 'NONE', #248, #133, #187 ) ;
#264 = PLANE ( 'NONE',  #12 ) ;
#265 = DIRECTION ( 'NONE',  ( -3.491481338843133355E-15, 1.224646799147353207E-16, -1.000000000000000000 ) ) ;
#266 = FACE_OUTER_BOUND ( 'NONE', #116, .T. ) ;
#267 = AXIS2_PLACEMENT_3D ( 'NONE', #279, #93, #73 ) ;
#268 = DIRECTION ( 'NONE',  ( 0.0000000000000000000, 1.000000000000000000, 0.0000000000000000000 ) ) ;
#269 = PRODUCT_DEFINITION ( 'UNKNOWN', '', #233, #146 ) ;
#270 = FACE_BOUND ( 'NONE', #200, .T. ) ;
#271 = CARTESIAN_POINT ( 'NONE',  ( 1.326762908760390423E-13, 1.199999999999998845, 38.00000000000000000 ) ) ;
#272 = ORIENTED_EDGE ( 'NONE', *, *, #74, .F. ) ;
#273 = ORIENTED_EDGE ( 'NONE', *, *, #78, .T. ) ;
#274 = DIRECTION ( 'NONE',  ( 1.000000000000000000, 0.0000000000000000000, 0.0000000000000000000 ) ) ;
#275 = CIRCLE ( 'NONE', #235, 0.2649999999999996803 ) ;
#276 = DIRECTION ( 'NONE',  ( 3.491481338843133355E-15, -1.224646799147353207E-16, 1.000000000000000000 ) ) ;
#277 = EDGE_LOOP ( 'NONE', ( #27 ) ) ;
#278 = EDGE_LOOP ( 'NONE', ( #228 ) ) ;
#279 = CARTESIAN_POINT ( 'NONE',  ( 0.0000000000000000000, 0.0000000000000000000, 0.0000000000000000000 ) ) ;
#280 = PERSON ( 'UNSPECIFIED', 'UNSPECIFIED', 'UNSPECIFIED', ('UNSPECIFIED'), ('UNSPECIFIED'), ('UNSPECIFIED') ) ;
#281 = PERSON_AND_ORGANIZATION ( #280, #153 ) ;
#282 = ADVANCED_FACE ( 'NONE', ( #30, #178 ), #149, .T. ) ;
#283 = CARTESIAN_POINT ( 'NONE',  ( -4.731839565957901202E-32, 0.2072649730810375568, -1.355252715606880234E-17 ) ) ;
ENDSEC;
END-ISO-10303-21;
