ISO-10303-21;
HEADER;
FILE_DESCRIPTION (( 'STEP AP203' ),
    '1' );
FILE_NAME ('200741.step',
    '2021-12-01T07:27:14',
    ( '' ),
    ( '' ),
    'SwSTEP 2.0',
    'SolidWorks 2019',
    '' );
FILE_SCHEMA (( 'CONFIG_CONTROL_DESIGN' ));
ENDSEC;

DATA;
#1 = CONICAL_SURFACE ( 'NONE', #222, 0.2899999999999992584, 0.5235987755982925984 ) ;
#2 = ORIENTED_EDGE ( 'NONE', *, *, #257, .T. ) ;
#3 = AXIS2_PLACEMENT_3D ( 'NONE', #139, #278, #159 ) ;
#4 = PERSON ( 'UNSPECIFIED', 'UNSPECIFIED', 'UNSPECIFIED', ('UNSPECIFIED'), ('UNSPECIFIED'), ('UNSPECIFIED') ) ;
#5 = EDGE_CURVE ( 'NONE', #34, #34, #104, .T. ) ;
#6 = APPROVAL ( #106, 'UNSPECIFIED' ) ;
#7 = EDGE_LOOP ( 'NONE', ( #90 ) ) ;
#8 = CIRCLE ( 'NONE', #25, 0.2899999999999998690 ) ;
#9 = DIRECTION ( 'NONE',  ( 0.0000000000000000000, 1.000000000000000000, 0.0000000000000000000 ) ) ;
#10 = CARTESIAN_POINT ( 'NONE',  ( 1.326762908760390423E-13, 1.199999999999998845, 38.00000000000000000 ) ) ;
#11 = CARTESIAN_POINT ( 'NONE',  ( 1.316288464743861212E-13, -4.616918432785521081E-15, 37.69999999999999574 ) ) ;
#12 = ADVANCED_FACE ( 'NONE', ( #117, #279 ), #148, .T. ) ;
#13 = AXIS2_PLACEMENT_3D ( 'NONE', #276, #26, #73 ) ;
#14 = DATE_AND_TIME ( #124, #178 ) ;
#15 = CARTESIAN_POINT ( 'NONE',  ( 3.491481338843132862E-16, -1.224646799147352961E-17, 0.09999999999999997780 ) ) ;
#16 = FACE_OUTER_BOUND ( 'NONE', #110, .T. ) ;
#17 = APPROVAL_DATE_TIME ( #216, #88 ) ;
#18 = MECHANICAL_CONTEXT ( 'NONE', #155, 'mechanical' ) ;
#19 = DIRECTION ( 'NONE',  ( 1.000000000000000000, 0.0000000000000000000, 0.0000000000000000000 ) ) ;
#20 = APPROVAL_STATUS ( 'not_yet_approved' ) ;
#21 = ORIENTED_EDGE ( 'NONE', *, *, #156, .F. ) ;
#22 = PRODUCT_DEFINITION ( 'UNKNOWN', '', #260, #83 ) ;
#23 = CIRCLE ( 'NONE', #167, 0.2900000000000002021 ) ;
#24 = EDGE_CURVE ( 'NONE', #27, #27, #243, .T. ) ;
#25 = AXIS2_PLACEMENT_3D ( 'NONE', #75, #183, #144 ) ;
#26 = DIRECTION ( 'NONE',  ( -3.491481338843133355E-15, 1.224646799147353207E-16, -1.000000000000000000 ) ) ;
#27 = VERTEX_POINT ( 'NONE', #91 ) ;
#28 = ORIENTED_EDGE ( 'NONE', *, *, #196, .F. ) ;
#29 = CARTESIAN_POINT ( 'NONE',  ( 1.396592535537253342E-14, 2.174651684859685800E-33, 4.000000000000000000 ) ) ;
#30 = CYLINDRICAL_SURFACE ( 'NONE', #234, 1.500000000000000000 ) ;
#31 = PERSON_AND_ORGANIZATION ( #4, #44 ) ;
#32 = FACE_OUTER_BOUND ( 'NONE', #171, .T. ) ;
#33 = CIRCLE ( 'NONE', #94, 1.499999999999996891 ) ;
#34 = VERTEX_POINT ( 'NONE', #10 ) ;
#35 = EDGE_LOOP ( 'NONE', ( #41 ) ) ;
#36 = DATE_TIME_ROLE ( 'classification_date' ) ;
#37 = APPLICATION_PROTOCOL_DEFINITION ( 'international standard', 'config_control_design', 1994, #163 ) ;
#38 =( NAMED_UNIT ( * ) SI_UNIT ( $, .STERADIAN. ) SOLID_ANGLE_UNIT ( ) );
#39 = AXIS2_PLACEMENT_3D ( 'NONE', #240, #77, #121 ) ;
#40 = ORIENTED_EDGE ( 'NONE', *, *, #247, .F. ) ;
#41 = ORIENTED_EDGE ( 'NONE', *, *, #156, .T. ) ;
#42 = PERSON_AND_ORGANIZATION ( #4, #44 ) ;
#43 =( LENGTH_UNIT ( ) NAMED_UNIT ( * ) SI_UNIT ( .MILLI., .METRE. ) );
#44 = ORGANIZATION ( 'UNSPECIFIED', 'UNSPECIFIED', '' ) ;
#45 = CC_DESIGN_APPROVAL ( #6, ( #22 ) ) ;
#46 = ADVANCED_FACE ( 'NONE', ( #70 ), #207, .F. ) ;
#47 = DIRECTION ( 'NONE',  ( 0.0000000000000000000, 1.000000000000000000, 0.0000000000000000000 ) ) ;
#48 = CARTESIAN_POINT ( 'NONE',  ( 4.551923942020569014E-14, -1.596599994260529430E-15, 13.03722832878952964 ) ) ;
#49 = CC_DESIGN_PERSON_AND_ORGANIZATION_ASSIGNMENT ( #31, #187, ( #260 ) ) ;
#50 = FACE_BOUND ( 'NONE', #7, .T. ) ;
#51 = CARTESIAN_POINT ( 'NONE',  ( 1.396592535537253342E-14, 2.174651684859685800E-33, 4.000000000000000000 ) ) ;
#52 = VERTEX_POINT ( 'NONE', #181 ) ;
#53 = APPROVAL_ROLE ( '' ) ;
#54 = CARTESIAN_POINT ( 'NONE',  ( 0.0000000000000000000, 0.0000000000000000000, 0.0000000000000000000 ) ) ;
#55 = CLOSED_SHELL ( 'NONE', ( #263, #109, #12, #80 ) ) ;
#56 = FACE_OUTER_BOUND ( 'NONE', #35, .T. ) ;
#57 = COORDINATED_UNIVERSAL_TIME_OFFSET ( 1, 0, .AHEAD. ) ;
#58 = ORIENTED_EDGE ( 'NONE', *, *, #24, .F. ) ;
#59 = SECURITY_CLASSIFICATION_LEVEL ( 'unclassified' ) ;
#60 = PERSON_AND_ORGANIZATION ( #4, #44 ) ;
#61 = EDGE_LOOP ( 'NONE', ( #197 ) ) ;
#62 = CONICAL_SURFACE ( 'NONE', #82, 1.200000000000003286, 0.7853981633974453924 ) ;
#63 = ORIENTED_EDGE ( 'NONE', *, *, #257, .F. ) ;
#64 = PERSON_AND_ORGANIZATION ( #4, #44 ) ;
#65 = DIRECTION ( 'NONE',  ( 4.399632352205861768E-31, 1.000000000000000000, 1.224646799147353207E-16 ) ) ;
#66 = CC_DESIGN_PERSON_AND_ORGANIZATION_ASSIGNMENT ( #238, #259, ( #146 ) ) ;
#67 = AXIS2_PLACEMENT_3D ( 'NONE', #29, #120, #235 ) ;
#68 = DIRECTION ( 'NONE',  ( -3.491481338843133355E-15, 1.224646799147353207E-16, -1.000000000000000000 ) ) ;
#69 = CARTESIAN_POINT ( 'NONE',  ( 0.0000000000000000000, 0.0000000000000000000, 0.0000000000000000000 ) ) ;
#70 = FACE_OUTER_BOUND ( 'NONE', #191, .T. ) ;
#71 = CC_DESIGN_DATE_AND_TIME_ASSIGNMENT ( #166, #245, ( #22 ) ) ;
#72 = CYLINDRICAL_SURFACE ( 'NONE', #84, 0.2900000000000000355 ) ;
#73 = DIRECTION ( 'NONE',  ( 4.275831445896958607E-31, 1.000000000000000000, 1.224646799147353207E-16 ) ) ;
#74 = FACE_OUTER_BOUND ( 'NONE', #61, .T. ) ;
#75 = CARTESIAN_POINT ( 'NONE',  ( 1.396592535537253342E-14, -4.898587196589412829E-16, 4.000000000000000000 ) ) ;
#76 = DIRECTION ( 'NONE',  ( -3.491481338843133355E-15, 1.224646799147353207E-16, -1.000000000000000000 ) ) ;
#77 = DIRECTION ( 'NONE',  ( -3.491481338843133355E-15, 1.224646799147353207E-16, -1.000000000000000000 ) ) ;
#78 = LOCAL_TIME ( 8, 27, 14.00000000000000000, #79 ) ;
#79 = COORDINATED_UNIVERSAL_TIME_OFFSET ( 1, 0, .AHEAD. ) ;
#80 = ADVANCED_FACE ( 'NONE', ( #254 ), #143, .T. ) ;
#81 = VERTEX_POINT ( 'NONE', #265 ) ;
#82 = AXIS2_PLACEMENT_3D ( 'NONE', #186, #76, #47 ) ;
#83 = DESIGN_CONTEXT ( 'detailed design', #163, 'design' ) ;
#84 = AXIS2_PLACEMENT_3D ( 'NONE', #54, #68, #230 ) ;
#85 = AXIS2_PLACEMENT_3D ( 'NONE', #93, #97, #250 ) ;
#86 = ORIENTED_EDGE ( 'NONE', *, *, #269, .T. ) ;
#87 = EDGE_LOOP ( 'NONE', ( #86 ) ) ;
#88 = APPROVAL ( #182, 'UNSPECIFIED' ) ;
#89 = CARTESIAN_POINT ( 'NONE',  ( 1.316288464743861212E-13, 1.499999999999998668, 37.69999999999999574 ) ) ;
#90 = ORIENTED_EDGE ( 'NONE', *, *, #220, .F. ) ;
#91 = CARTESIAN_POINT ( 'NONE',  ( 1.396592535537253342E-14, 0.2899999999999994249, 4.000000000000000000 ) ) ;
#92 = AXIS2_PLACEMENT_3D ( 'NONE', #51, #280, #140 ) ;
#93 = CARTESIAN_POINT ( 'NONE',  ( 4.551923942020569014E-14, -1.596599994260529430E-15, 13.03722832878952964 ) ) ;
#94 = AXIS2_PLACEMENT_3D ( 'NONE', #48, #116, #9 ) ;
#95 = PERSON_AND_ORGANIZATION ( #4, #44 ) ;
#96 = FACE_OUTER_BOUND ( 'NONE', #274, .T. ) ;
#97 = DIRECTION ( 'NONE',  ( 3.491481338843133355E-15, -1.224646799147353207E-16, 1.000000000000000000 ) ) ;
#98 = ADVANCED_FACE ( 'NONE', ( #233, #74 ), #108, .F. ) ;
#99 = MANIFOLD_SOLID_BREP ( 'Corps-Déplacer/Copier1[1]', #268 ) ;
#100 = FACE_OUTER_BOUND ( 'NONE', #87, .T. ) ;
#101 = MANIFOLD_SOLID_BREP ( 'Corps-Déplacer/Copier1[2]', #55 ) ;
#102 = DIRECTION ( 'NONE',  ( -3.491481338843133355E-15, 1.224646799147353207E-16, -1.000000000000000000 ) ) ;
#103 = CALENDAR_DATE ( 2021, 1, 12 ) ;
#104 = CIRCLE ( 'NONE', #137, 1.200000000000003286 ) ;
#105 = PERSON_AND_ORGANIZATION_ROLE ( 'creator' ) ;
#106 = APPROVAL_STATUS ( 'not_yet_approved' ) ;
#107 = EDGE_LOOP ( 'NONE', ( #127 ) ) ;
#108 = TOROIDAL_SURFACE ( 'NONE', #173, 2.290000000000000480, 2.000000000000000000 ) ;
#109 = ADVANCED_FACE ( 'NONE', ( #199, #56 ), #1, .T. ) ;
#110 = EDGE_LOOP ( 'NONE', ( #113 ) ) ;
#111 = CARTESIAN_POINT ( 'NONE',  ( -4.731839565957903391E-32, 0.2322649730810374957, -1.355252715606880543E-17 ) ) ;
#112 = DIRECTION ( 'NONE',  ( -3.491481338843133355E-15, 1.224646799147353207E-16, -1.000000000000000000 ) ) ;
#113 = ORIENTED_EDGE ( 'NONE', *, *, #24, .T. ) ;
#114 = DIRECTION ( 'NONE',  ( 4.275831445896959482E-31, 1.000000000000000000, 1.224646799147353207E-16 ) ) ;
#115 = DATE_AND_TIME ( #147, #78 ) ;
#116 = DIRECTION ( 'NONE',  ( -3.491481338843133355E-15, 1.224646799147353207E-16, -1.000000000000000000 ) ) ;
#117 = FACE_OUTER_BOUND ( 'NONE', #282, .T. ) ;
#118 = LOCAL_TIME ( 8, 27, 14.00000000000000000, #193 ) ;
#119 = ADVANCED_FACE ( 'NONE', ( #96, #100 ), #72, .T. ) ;
#120 = DIRECTION ( 'NONE',  ( 3.491481338843133355E-15, -1.224646799147353207E-16, 1.000000000000000000 ) ) ;
#121 = DIRECTION ( 'NONE',  ( 4.275831445896957731E-31, 1.000000000000000000, 1.224646799147352961E-16 ) ) ;
#122 = APPROVAL_DATE_TIME ( #115, #174 ) ;
#123 = LOCAL_TIME ( 8, 27, 14.00000000000000000, #57 ) ;
#124 = CALENDAR_DATE ( 2021, 1, 12 ) ;
#125 =( NAMED_UNIT ( * ) PLANE_ANGLE_UNIT ( ) SI_UNIT ( $, .RADIAN. ) );
#126 = CARTESIAN_POINT ( 'NONE',  ( 1.396592535537253342E-14, -4.898587196589412829E-16, 4.000000000000000000 ) ) ;
#127 = ORIENTED_EDGE ( 'NONE', *, *, #196, .T. ) ;
#128 = CARTESIAN_POINT ( 'NONE',  ( 1.326762908760390423E-13, -4.653657836759941941E-15, 38.00000000000000000 ) ) ;
#129 = APPROVAL_ROLE ( '' ) ;
#130 = CARTESIAN_POINT ( 'NONE',  ( 1.396592535537253342E-14, 0.2899999999999994249, 4.000000000000000000 ) ) ;
#131 = CONICAL_SURFACE ( 'NONE', #85, 1.499999999999996891, 0.1745329251994260922 ) ;
#132 = APPROVAL_PERSON_ORGANIZATION ( #95, #88, #53 ) ;
#133 = AXIS2_PLACEMENT_3D ( 'NONE', #239, #195, #19 ) ;
#134 = PRODUCT_DEFINITION_SHAPE ( 'NONE', 'NONE',  #22 ) ;
#135 = ADVANCED_BREP_SHAPE_REPRESENTATION ( '200741', ( #99, #101, #133 ), #153 ) ;
#136 = CARTESIAN_POINT ( 'NONE',  ( 2.094888803305880013E-14, -7.347880794884119736E-16, 6.000000000000000000 ) ) ;
#137 = AXIS2_PLACEMENT_3D ( 'NONE', #128, #102, #154 ) ;
#138 = DIRECTION ( 'NONE',  ( 4.980853304449760248E-31, 1.000000000000000000, 1.401985567869190245E-16 ) ) ;
#139 = CARTESIAN_POINT ( 'NONE',  ( -1.466309832276101185E-31, 5.143122555683514939E-33, -4.199678273984267952E-17 ) ) ;
#140 = DIRECTION ( 'NONE',  ( -4.275831445896958607E-31, -1.000000000000000000, -1.224646799147353207E-16 ) ) ;
#141 = CC_DESIGN_PERSON_AND_ORGANIZATION_ASSIGNMENT ( #64, #261, ( #224 ) ) ;
#142 = DIRECTION ( 'NONE',  ( 3.491481338843133355E-15, -1.224646799147353207E-16, 1.000000000000000000 ) ) ;
#143 = PLANE ( 'NONE',  #92 ) ;
#144 = DIRECTION ( 'NONE',  ( 0.0000000000000000000, 1.000000000000000000, 0.0000000000000000000 ) ) ;
#145 = AXIS2_PLACEMENT_3D ( 'NONE', #162, #142, #256 ) ;
#146 = SECURITY_CLASSIFICATION ( '', '', #59 ) ;
#147 = CALENDAR_DATE ( 2021, 1, 12 ) ;
#148 = CYLINDRICAL_SURFACE ( 'NONE', #39, 0.2899999999999995914 ) ;
#149 = CC_DESIGN_PERSON_AND_ORGANIZATION_ASSIGNMENT ( #281, #168, ( #260 ) ) ;
#150 = COORDINATED_UNIVERSAL_TIME_OFFSET ( 1, 0, .AHEAD. ) ;
#151 = PERSON_AND_ORGANIZATION ( #4, #44 ) ;
#152 = EDGE_LOOP ( 'NONE', ( #179 ) ) ;
#153 =( GEOMETRIC_REPRESENTATION_CONTEXT ( 3 ) GLOBAL_UNCERTAINTY_ASSIGNED_CONTEXT ( ( #208 ) ) GLOBAL_UNIT_ASSIGNED_CONTEXT ( ( #43, #125, #38 ) ) REPRESENTATION_CONTEXT ( 'NONE', 'WORKASPACE' ) );
#154 = DIRECTION ( 'NONE',  ( 0.0000000000000000000, 1.000000000000000000, 0.0000000000000000000 ) ) ;
#155 = APPLICATION_CONTEXT ( 'configuration controlled 3d designs of mechanical parts and assemblies' ) ;
#156 = EDGE_CURVE ( 'NONE', #52, #52, #157, .T. ) ;
#157 = CIRCLE ( 'NONE', #176, 0.2899999999999992584 ) ;
#158 = AXIS2_PLACEMENT_3D ( 'NONE', #164, #231, #188 ) ;
#159 = DIRECTION ( 'NONE',  ( 4.275831445896958607E-31, 1.000000000000000000, 1.224646799147353207E-16 ) ) ;
#160 = FACE_BOUND ( 'NONE', #246, .T. ) ;
#161 = FACE_OUTER_BOUND ( 'NONE', #152, .T. ) ;
#162 = CARTESIAN_POINT ( 'NONE',  ( -7.331549161380505924E-32, 2.571561277841757470E-33, -2.099839136992133976E-17 ) ) ;
#163 = APPLICATION_CONTEXT ( 'configuration controlled 3d designs of mechanical parts and assemblies' ) ;
#164 = CARTESIAN_POINT ( 'NONE',  ( 2.216146677675516085E-14, -7.773196164799256863E-16, 6.347296355333846840 ) ) ;
#165 = EDGE_LOOP ( 'NONE', ( #242 ) ) ;
#166 = DATE_AND_TIME ( #244, #212 ) ;
#167 = AXIS2_PLACEMENT_3D ( 'NONE', #136, #112, #206 ) ;
#168 = PERSON_AND_ORGANIZATION_ROLE ( 'creator' ) ;
#169 = ORIENTED_EDGE ( 'NONE', *, *, #236, .F. ) ;
#170 = APPLICATION_PROTOCOL_DEFINITION ( 'international standard', 'config_control_design', 1994, #155 ) ;
#171 = EDGE_LOOP ( 'NONE', ( #169 ) ) ;
#172 = APPROVAL_DATE_TIME ( #192, #6 ) ;
#173 = AXIS2_PLACEMENT_3D ( 'NONE', #255, #200, #65 ) ;
#174 = APPROVAL ( #20, 'UNSPECIFIED' ) ;
#175 = DIRECTION ( 'NONE',  ( -4.980853304449760248E-31, -1.000000000000000000, -1.401985567869190245E-16 ) ) ;
#176 = AXIS2_PLACEMENT_3D ( 'NONE', #15, #275, #138 ) ;
#177 = ADVANCED_FACE ( 'NONE', ( #50, #253 ), #131, .T. ) ;
#178 = LOCAL_TIME ( 8, 27, 14.00000000000000000, #150 ) ;
#179 = ORIENTED_EDGE ( 'NONE', *, *, #236, .T. ) ;
#180 = PLANE ( 'NONE',  #67 ) ;
#181 = CARTESIAN_POINT ( 'NONE',  ( 3.491481338843134341E-16, 0.2899999999999992584, 0.1000000000000000194 ) ) ;
#182 = APPROVAL_STATUS ( 'not_yet_approved' ) ;
#183 = DIRECTION ( 'NONE',  ( -3.491481338843133355E-15, 1.224646799147353207E-16, -1.000000000000000000 ) ) ;
#184 = DIRECTION ( 'NONE',  ( 0.0000000000000000000, 1.000000000000000000, 0.0000000000000000000 ) ) ;
#185 = CALENDAR_DATE ( 2021, 1, 12 ) ;
#186 = CARTESIAN_POINT ( 'NONE',  ( 1.326762908760390423E-13, -4.653657836759941941E-15, 38.00000000000000000 ) ) ;
#187 = PERSON_AND_ORGANIZATION_ROLE ( 'design_supplier' ) ;
#188 = DIRECTION ( 'NONE',  ( 0.0000000000000000000, 1.000000000000000000, 0.0000000000000000000 ) ) ;
#189 = CC_DESIGN_APPROVAL ( #88, ( #146 ) ) ;
#190 = EDGE_LOOP ( 'NONE', ( #28 ) ) ;
#191 = EDGE_LOOP ( 'NONE', ( #226 ) ) ;
#192 = DATE_AND_TIME ( #103, #118 ) ;
#193 = COORDINATED_UNIVERSAL_TIME_OFFSET ( 1, 0, .AHEAD. ) ;
#194 = EDGE_LOOP ( 'NONE', ( #2 ) ) ;
#195 = DIRECTION ( 'NONE',  ( 0.0000000000000000000, 0.0000000000000000000, 1.000000000000000000 ) ) ;
#196 = EDGE_CURVE ( 'NONE', #272, #272, #273, .T. ) ;
#197 = ORIENTED_EDGE ( 'NONE', *, *, #220, .T. ) ;
#198 = APPROVAL_PERSON_ORGANIZATION ( #60, #6, #129 ) ;
#199 = FACE_BOUND ( 'NONE', #190, .T. ) ;
#200 = DIRECTION ( 'NONE',  ( -3.491481338843133355E-15, 1.224646799147353207E-16, -1.000000000000000000 ) ) ;
#201 = ADVANCED_FACE ( 'NONE', ( #16 ), #180, .F. ) ;
#202 = ADVANCED_FACE ( 'NONE', ( #32, #160 ), #62, .T. ) ;
#203 = APPROVAL_PERSON_ORGANIZATION ( #42, #174, #221 ) ;
#204 = VERTEX_POINT ( 'NONE', #89 ) ;
#205 = CC_DESIGN_DATE_AND_TIME_ASSIGNMENT ( #14, #36, ( #146 ) ) ;
#206 = DIRECTION ( 'NONE',  ( 0.0000000000000000000, 1.000000000000000000, 0.0000000000000000000 ) ) ;
#207 = PLANE ( 'NONE',  #13 ) ;
#208 = UNCERTAINTY_MEASURE_WITH_UNIT (LENGTH_MEASURE( 1.000000000000000082E-05 ), #43, 'distance_accuracy_value', 'NONE');
#209 = EDGE_LOOP ( 'NONE', ( #40 ) ) ;
#210 = FACE_OUTER_BOUND ( 'NONE', #107, .T. ) ;
#211 = AXIS2_PLACEMENT_3D ( 'NONE', #126, #217, #184 ) ;
#212 = LOCAL_TIME ( 8, 27, 14.00000000000000000, #219 ) ;
#213 = CARTESIAN_POINT ( 'NONE',  ( 2.216146677675516085E-14, 0.3203844939755803312, 6.347296355333846840 ) ) ;
#214 = SHAPE_DEFINITION_REPRESENTATION ( #134, #135 ) ;
#215 = DIRECTION ( 'NONE',  ( -3.491481338843133355E-15, 1.224646799147353207E-16, -1.000000000000000000 ) ) ;
#216 = DATE_AND_TIME ( #185, #123 ) ;
#217 = DIRECTION ( 'NONE',  ( -3.491481338843133355E-15, 1.224646799147353207E-16, -1.000000000000000000 ) ) ;
#218 = VERTEX_POINT ( 'NONE', #241 ) ;
#219 = COORDINATED_UNIVERSAL_TIME_OFFSET ( 1, 0, .AHEAD. ) ;
#220 = EDGE_CURVE ( 'NONE', #232, #232, #249, .T. ) ;
#221 = APPROVAL_ROLE ( '' ) ;
#222 = AXIS2_PLACEMENT_3D ( 'NONE', #277, #248, #175 ) ;
#223 = CC_DESIGN_PERSON_AND_ORGANIZATION_ASSIGNMENT ( #151, #105, ( #22 ) ) ;
#224 = PRODUCT ( '200741', '200741', '', ( #18 ) ) ;
#225 = CC_DESIGN_SECURITY_CLASSIFICATION ( #146, ( #260 ) ) ;
#226 = ORIENTED_EDGE ( 'NONE', *, *, #5, .F. ) ;
#227 = PLANE ( 'NONE',  #145 ) ;
#228 = ADVANCED_FACE ( 'NONE', ( #271, #161 ), #30, .T. ) ;
#229 = EDGE_LOOP ( 'NONE', ( #63 ) ) ;
#230 = DIRECTION ( 'NONE',  ( 4.275831445896958607E-31, 1.000000000000000000, 1.224646799147353207E-16 ) ) ;
#231 = DIRECTION ( 'NONE',  ( -3.491481338843133355E-15, 1.224646799147353207E-16, -1.000000000000000000 ) ) ;
#232 = VERTEX_POINT ( 'NONE', #213 ) ;
#233 = FACE_OUTER_BOUND ( 'NONE', #165, .T. ) ;
#234 = AXIS2_PLACEMENT_3D ( 'NONE', #69, #215, #114 ) ;
#235 = DIRECTION ( 'NONE',  ( -4.275831445896958607E-31, -1.000000000000000000, -1.224646799147353207E-16 ) ) ;
#236 = EDGE_CURVE ( 'NONE', #204, #204, #270, .T. ) ;
#237 = EDGE_LOOP ( 'NONE', ( #264 ) ) ;
#238 = PERSON_AND_ORGANIZATION ( #4, #44 ) ;
#239 = CARTESIAN_POINT ( 'NONE',  ( 0.0000000000000000000, 0.0000000000000000000, 0.0000000000000000000 ) ) ;
#240 = CARTESIAN_POINT ( 'NONE',  ( 0.0000000000000000000, 0.0000000000000000000, 0.0000000000000000000 ) ) ;
#241 = CARTESIAN_POINT ( 'NONE',  ( 2.094888803305880013E-14, 0.2899999999999994804, 6.000000000000000000 ) ) ;
#242 = ORIENTED_EDGE ( 'NONE', *, *, #269, .F. ) ;
#243 = CIRCLE ( 'NONE', #211, 0.2899999999999998690 ) ;
#244 = CALENDAR_DATE ( 2021, 1, 12 ) ;
#245 = DATE_TIME_ROLE ( 'creation_date' ) ;
#246 = EDGE_LOOP ( 'NONE', ( #266 ) ) ;
#247 = EDGE_CURVE ( 'NONE', #81, #81, #33, .T. ) ;
#248 = DIRECTION ( 'NONE',  ( 3.491481338843133355E-15, -1.224646799147353207E-16, 1.000000000000000000 ) ) ;
#249 = CIRCLE ( 'NONE', #158, 0.3203844939755811083 ) ;
#250 = DIRECTION ( 'NONE',  ( 0.0000000000000000000, -1.000000000000000000, 0.0000000000000000000 ) ) ;
#251 = DIRECTION ( 'NONE',  ( -3.491481338843133355E-15, 1.224646799147353207E-16, -1.000000000000000000 ) ) ;
#252 = CC_DESIGN_APPROVAL ( #174, ( #260 ) ) ;
#253 = FACE_OUTER_BOUND ( 'NONE', #237, .T. ) ;
#254 = FACE_OUTER_BOUND ( 'NONE', #229, .T. ) ;
#255 = CARTESIAN_POINT ( 'NONE',  ( 2.094888803305880013E-14, -8.673617379884035472E-16, 6.000000000000000000 ) ) ;
#256 = DIRECTION ( 'NONE',  ( -4.275831445896958607E-31, -1.000000000000000000, -1.224646799147353207E-16 ) ) ;
#257 = EDGE_CURVE ( 'NONE', #262, #262, #8, .T. ) ;
#258 = DIRECTION ( 'NONE',  ( 0.0000000000000000000, 1.000000000000000000, 0.0000000000000000000 ) ) ;
#259 = PERSON_AND_ORGANIZATION_ROLE ( 'classification_officer' ) ;
#260 = PRODUCT_DEFINITION_FORMATION_WITH_SPECIFIED_SOURCE ( 'ANY', '', #224, .NOT_KNOWN. ) ;
#261 = PERSON_AND_ORGANIZATION_ROLE ( 'design_owner' ) ;
#262 = VERTEX_POINT ( 'NONE', #130 ) ;
#263 = ADVANCED_FACE ( 'NONE', ( #210 ), #227, .F. ) ;
#264 = ORIENTED_EDGE ( 'NONE', *, *, #247, .T. ) ;
#265 = CARTESIAN_POINT ( 'NONE',  ( 4.551923942020569014E-14, 1.499999999999995559, 13.03722832878952964 ) ) ;
#266 = ORIENTED_EDGE ( 'NONE', *, *, #5, .T. ) ;
#267 = AXIS2_PLACEMENT_3D ( 'NONE', #11, #251, #258 ) ;
#268 = CLOSED_SHELL ( 'NONE', ( #201, #119, #98, #177, #228, #202, #46 ) ) ;
#269 = EDGE_CURVE ( 'NONE', #218, #218, #23, .T. ) ;
#270 = CIRCLE ( 'NONE', #267, 1.500000000000003331 ) ;
#271 = FACE_OUTER_BOUND ( 'NONE', #209, .T. ) ;
#272 = VERTEX_POINT ( 'NONE', #111 ) ;
#273 = CIRCLE ( 'NONE', #3, 0.2322649730810374957 ) ;
#274 = EDGE_LOOP ( 'NONE', ( #58 ) ) ;
#275 = DIRECTION ( 'NONE',  ( -3.491481338843133355E-15, 1.224646799147353207E-16, -1.000000000000000000 ) ) ;
#276 = CARTESIAN_POINT ( 'NONE',  ( 1.326762908760390423E-13, 8.998558695971103225E-33, 38.00000000000000000 ) ) ;
#277 = CARTESIAN_POINT ( 'NONE',  ( 3.491481338843132862E-16, -1.224646799147352961E-17, 0.09999999999999997780 ) ) ;
#278 = DIRECTION ( 'NONE',  ( -3.491481338843133355E-15, 1.224646799147353207E-16, -1.000000000000000000 ) ) ;
#279 = FACE_OUTER_BOUND ( 'NONE', #194, .T. ) ;
#280 = DIRECTION ( 'NONE',  ( 3.491481338843133355E-15, -1.224646799147353207E-16, 1.000000000000000000 ) ) ;
#281 = PERSON_AND_ORGANIZATION ( #4, #44 ) ;
#282 = EDGE_LOOP ( 'NONE', ( #21 ) ) ;
#283 = PRODUCT_RELATED_PRODUCT_CATEGORY ( 'detail', '', ( #224 ) ) ;
ENDSEC;
END-ISO-10303-21;
