ISO-10303-21;
HEADER;
FILE_DESCRIPTION (( 'STEP AP203' ),
    '1' );
FILE_NAME ('200740.step',
    '2021-12-01T07:27:13',
    ( '' ),
    ( '' ),
    'SwSTEP 2.0',
    'SolidWorks 2019',
    '' );
FILE_SCHEMA (( 'CONFIG_CONTROL_DESIGN' ));
ENDSEC;

DATA;
#1 = ORIENTED_EDGE ( 'NONE', *, *, #223, .T. ) ;
#2 = PERSON_AND_ORGANIZATION_ROLE ( 'design_owner' ) ;
#3 = VERTEX_POINT ( 'NONE', #174 ) ;
#4 = AXIS2_PLACEMENT_3D ( 'NONE', #203, #200, #134 ) ;
#5 = APPROVAL_ROLE ( '' ) ;
#6 = PERSON_AND_ORGANIZATION ( #181, #36 ) ;
#7 = CARTESIAN_POINT ( 'NONE',  ( 3.491481338843133848E-16, 0.2999999999999992117, 0.1000000000000000056 ) ) ;
#8 = DIRECTION ( 'NONE',  ( -3.491481338843133355E-15, 1.224646799147353207E-16, -1.000000000000000000 ) ) ;
#9 = ORIENTED_EDGE ( 'NONE', *, *, #66, .F. ) ;
#10 = CARTESIAN_POINT ( 'NONE',  ( 2.216146677675516400E-14, -7.773196164799257849E-16, 6.347296355333847728 ) ) ;
#11 = PLANE ( 'NONE',  #47 ) ;
#12 = AXIS2_PLACEMENT_3D ( 'NONE', #169, #236, #165 ) ;
#13 = CONICAL_SURFACE ( 'NONE', #148, 1.499999999999996891, 0.1745329251994260367 ) ;
#14 = PRODUCT_DEFINITION ( 'UNKNOWN', '', #141, #105 ) ;
#15 = AXIS2_PLACEMENT_3D ( 'NONE', #228, #230, #108 ) ;
#16 = ADVANCED_BREP_SHAPE_REPRESENTATION ( '200740', ( #35, #231, #54 ), #98 ) ;
#17 = AXIS2_PLACEMENT_3D ( 'NONE', #143, #237, #189 ) ;
#18 = ORIENTED_EDGE ( 'NONE', *, *, #223, .F. ) ;
#19 = DATE_AND_TIME ( #152, #218 ) ;
#20 = DIRECTION ( 'NONE',  ( 0.0000000000000000000, 1.000000000000000000, 0.0000000000000000000 ) ) ;
#21 = PERSON_AND_ORGANIZATION_ROLE ( 'design_supplier' ) ;
#22 = CC_DESIGN_APPROVAL ( #51, ( #14 ) ) ;
#23 = AXIS2_PLACEMENT_3D ( 'NONE', #195, #68, #60 ) ;
#24 = CARTESIAN_POINT ( 'NONE',  ( 1.316288464743861212E-13, 1.499999999999998668, 37.69999999999999574 ) ) ;
#25 = CARTESIAN_POINT ( 'NONE',  ( 1.396592535537253342E-14, 0.2999999999999991007, 4.000000000000000000 ) ) ;
#26 = DIRECTION ( 'NONE',  ( -3.491481338843133355E-15, 1.224646799147353207E-16, -1.000000000000000000 ) ) ;
#27 = CC_DESIGN_APPROVAL ( #241, ( #109 ) ) ;
#28 = AXIS2_PLACEMENT_3D ( 'NONE', #253, #58, #136 ) ;
#29 = FACE_OUTER_BOUND ( 'NONE', #62, .T. ) ;
#30 = FACE_OUTER_BOUND ( 'NONE', #145, .T. ) ;
#31 = DIRECTION ( 'NONE',  ( 3.491481338843133355E-15, -1.224646799147353207E-16, 1.000000000000000000 ) ) ;
#32 = DIRECTION ( 'NONE',  ( -3.491481338843133355E-15, 1.224646799147353207E-16, -1.000000000000000000 ) ) ;
#33 = CC_DESIGN_PERSON_AND_ORGANIZATION_ASSIGNMENT ( #204, #159, ( #109 ) ) ;
#34 = ORIENTED_EDGE ( 'NONE', *, *, #147, .T. ) ;
#35 = MANIFOLD_SOLID_BREP ( 'Corps-Déplacer/Copier1[1]', #48 ) ;
#36 = ORGANIZATION ( 'UNSPECIFIED', 'UNSPECIFIED', '' ) ;
#37 = CARTESIAN_POINT ( 'NONE',  ( 1.326762908760390423E-13, -4.653657836759941941E-15, 38.00000000000000000 ) ) ;
#38 = ORIENTED_EDGE ( 'NONE', *, *, #147, .F. ) ;
#39 = CARTESIAN_POINT ( 'NONE',  ( 0.0000000000000000000, 0.0000000000000000000, 0.0000000000000000000 ) ) ;
#40 = EDGE_CURVE ( 'NONE', #261, #261, #57, .T. ) ;
#41 = MECHANICAL_CONTEXT ( 'NONE', #111, 'mechanical' ) ;
#42 = APPROVAL_STATUS ( 'not_yet_approved' ) ;
#43 = APPROVAL_ROLE ( '' ) ;
#44 = CC_DESIGN_APPROVAL ( #190, ( #141 ) ) ;
#45 = AXIS2_PLACEMENT_3D ( 'NONE', #37, #61, #211 ) ;
#46 = EDGE_CURVE ( 'NONE', #127, #127, #212, .T. ) ;
#47 = AXIS2_PLACEMENT_3D ( 'NONE', #70, #93, #95 ) ;
#48 = CLOSED_SHELL ( 'NONE', ( #126, #137, #213, #73, #100, #63, #163 ) ) ;
#49 = PERSON_AND_ORGANIZATION_ROLE ( 'creator' ) ;
#50 = CYLINDRICAL_SURFACE ( 'NONE', #15, 0.2999999999999997113 ) ;
#51 = APPROVAL ( #172, 'UNSPECIFIED' ) ;
#52 = SECURITY_CLASSIFICATION_LEVEL ( 'unclassified' ) ;
#53 = FACE_OUTER_BOUND ( 'NONE', #173, .T. ) ;
#54 = AXIS2_PLACEMENT_3D ( 'NONE', #39, #121, #214 ) ;
#55 = DIRECTION ( 'NONE',  ( -4.275831445896958607E-31, -1.000000000000000000, -1.224646799147353207E-16 ) ) ;
#56 = FACE_OUTER_BOUND ( 'NONE', #254, .T. ) ;
#57 = CIRCLE ( 'NONE', #12, 0.2999999999999996003 ) ;
#58 = DIRECTION ( 'NONE',  ( -3.491481338843133355E-15, 1.224646799147353207E-16, -1.000000000000000000 ) ) ;
#59 = EDGE_LOOP ( 'NONE', ( #122 ) ) ;
#60 = DIRECTION ( 'NONE',  ( -4.275831445896958607E-31, -1.000000000000000000, -1.224646799147353207E-16 ) ) ;
#61 = DIRECTION ( 'NONE',  ( -3.491481338843133355E-15, 1.224646799147353207E-16, -1.000000000000000000 ) ) ;
#62 = EDGE_LOOP ( 'NONE', ( #164 ) ) ;
#63 = ADVANCED_FACE ( 'NONE', ( #119, #117 ), #245, .T. ) ;
#64 = AXIS2_PLACEMENT_3D ( 'NONE', #110, #32, #201 ) ;
#65 = CARTESIAN_POINT ( 'NONE',  ( -4.731839565957905581E-32, 0.2422649730810375324, -1.355252715606880543E-17 ) ) ;
#66 = EDGE_CURVE ( 'NONE', #107, #107, #158, .T. ) ;
#67 = COORDINATED_UNIVERSAL_TIME_OFFSET ( 1, 0, .AHEAD. ) ;
#68 = DIRECTION ( 'NONE',  ( 3.491481338843133355E-15, -1.224646799147353207E-16, 1.000000000000000000 ) ) ;
#69 = CARTESIAN_POINT ( 'NONE',  ( 1.326762908760390423E-13, 1.199999999999998845, 38.00000000000000000 ) ) ;
#70 = CARTESIAN_POINT ( 'NONE',  ( 1.326762908760390423E-13, 8.998558695971103225E-33, 38.00000000000000000 ) ) ;
#71 = CALENDAR_DATE ( 2021, 1, 12 ) ;
#72 = PLANE ( 'NONE',  #205 ) ;
#73 = ADVANCED_FACE ( 'NONE', ( #80, #208 ), #13, .T. ) ;
#74 = SHAPE_DEFINITION_REPRESENTATION ( #222, #16 ) ;
#75 = FACE_OUTER_BOUND ( 'NONE', #87, .T. ) ;
#76 = CIRCLE ( 'NONE', #226, 0.3303844939755813392 ) ;
#77 = APPROVAL_DATE_TIME ( #249, #241 ) ;
#78 = FACE_OUTER_BOUND ( 'NONE', #150, .T. ) ;
#79 = PERSON_AND_ORGANIZATION ( #181, #36 ) ;
#80 = FACE_BOUND ( 'NONE', #238, .T. ) ;
#81 = DIRECTION ( 'NONE',  ( 0.0000000000000000000, -1.000000000000000000, 0.0000000000000000000 ) ) ;
#82 = ORIENTED_EDGE ( 'NONE', *, *, #266, .F. ) ;
#83 = DIRECTION ( 'NONE',  ( 4.275831445896959482E-31, 1.000000000000000000, 1.224646799147353207E-16 ) ) ;
#84 = DIRECTION ( 'NONE',  ( -3.491481338843133355E-15, 1.224646799147353207E-16, -1.000000000000000000 ) ) ;
#85 = CIRCLE ( 'NONE', #131, 1.499999999999996891 ) ;
#86 = PERSON_AND_ORGANIZATION ( #181, #36 ) ;
#87 = EDGE_LOOP ( 'NONE', ( #153 ) ) ;
#88 = PERSON_AND_ORGANIZATION ( #181, #36 ) ;
#89 =( LENGTH_UNIT ( ) NAMED_UNIT ( * ) SI_UNIT ( .MILLI., .METRE. ) );
#90 =( NAMED_UNIT ( * ) PLANE_ANGLE_UNIT ( ) SI_UNIT ( $, .RADIAN. ) );
#91 = EDGE_CURVE ( 'NONE', #221, #221, #235, .T. ) ;
#92 = CLOSED_SHELL ( 'NONE', ( #113, #202, #256, #180 ) ) ;
#93 = DIRECTION ( 'NONE',  ( -3.491481338843133355E-15, 1.224646799147353207E-16, -1.000000000000000000 ) ) ;
#94 = DIRECTION ( 'NONE',  ( -3.491481338843133355E-15, 1.224646799147353207E-16, -1.000000000000000000 ) ) ;
#95 = DIRECTION ( 'NONE',  ( 4.275831445896958607E-31, 1.000000000000000000, 1.224646799147353207E-16 ) ) ;
#96 = AXIS2_PLACEMENT_3D ( 'NONE', #162, #227, #251 ) ;
#97 = PRODUCT_RELATED_PRODUCT_CATEGORY ( 'detail', '', ( #106 ) ) ;
#98 =( GEOMETRIC_REPRESENTATION_CONTEXT ( 3 ) GLOBAL_UNCERTAINTY_ASSIGNED_CONTEXT ( ( #183 ) ) GLOBAL_UNIT_ASSIGNED_CONTEXT ( ( #89, #90, #123 ) ) REPRESENTATION_CONTEXT ( 'NONE', 'WORKASPACE' ) );
#99 = CARTESIAN_POINT ( 'NONE',  ( 0.0000000000000000000, 0.0000000000000000000, 0.0000000000000000000 ) ) ;
#100 = ADVANCED_FACE ( 'NONE', ( #139, #234 ), #282, .T. ) ;
#101 = CC_DESIGN_DATE_AND_TIME_ASSIGNMENT ( #193, #129, ( #109 ) ) ;
#102 = CALENDAR_DATE ( 2021, 1, 12 ) ;
#103 = COORDINATED_UNIVERSAL_TIME_OFFSET ( 1, 0, .AHEAD. ) ;
#104 = PERSON_AND_ORGANIZATION ( #181, #36 ) ;
#105 = DESIGN_CONTEXT ( 'detailed design', #140, 'design' ) ;
#106 = PRODUCT ( '200740', '200740', '', ( #41 ) ) ;
#107 = VERTEX_POINT ( 'NONE', #65 ) ;
#108 = DIRECTION ( 'NONE',  ( 4.275831445896957731E-31, 1.000000000000000000, 1.224646799147353207E-16 ) ) ;
#109 = SECURITY_CLASSIFICATION ( '', '', #52 ) ;
#110 = CARTESIAN_POINT ( 'NONE',  ( 1.396592535537253342E-14, -4.898587196589412829E-16, 4.000000000000000000 ) ) ;
#111 = APPLICATION_CONTEXT ( 'configuration controlled 3d designs of mechanical parts and assemblies' ) ;
#112 = CARTESIAN_POINT ( 'NONE',  ( 4.532122767380054041E-14, -1.589654677133071853E-15, 12.98051551059335296 ) ) ;
#113 = ADVANCED_FACE ( 'NONE', ( #138 ), #198, .F. ) ;
#114 = CARTESIAN_POINT ( 'NONE',  ( 2.094888803305880013E-14, -7.347880794884119736E-16, 6.000000000000000000 ) ) ;
#115 = APPROVAL_PERSON_ORGANIZATION ( #104, #241, #186 ) ;
#116 = AXIS2_PLACEMENT_3D ( 'NONE', #281, #84, #118 ) ;
#117 = FACE_BOUND ( 'NONE', #168, .T. ) ;
#118 = DIRECTION ( 'NONE',  ( 0.0000000000000000000, 1.000000000000000000, 0.0000000000000000000 ) ) ;
#119 = FACE_OUTER_BOUND ( 'NONE', #59, .T. ) ;
#120 = ORIENTED_EDGE ( 'NONE', *, *, #91, .T. ) ;
#121 = DIRECTION ( 'NONE',  ( 0.0000000000000000000, 0.0000000000000000000, 1.000000000000000000 ) ) ;
#122 = ORIENTED_EDGE ( 'NONE', *, *, #91, .F. ) ;
#123 =( NAMED_UNIT ( * ) SI_UNIT ( $, .STERADIAN. ) SOLID_ANGLE_UNIT ( ) );
#124 = AXIS2_PLACEMENT_3D ( 'NONE', #248, #182, #269 ) ;
#125 = APPROVAL_DATE_TIME ( #155, #51 ) ;
#126 = ADVANCED_FACE ( 'NONE', ( #279 ), #177, .F. ) ;
#127 = VERTEX_POINT ( 'NONE', #69 ) ;
#128 = DIRECTION ( 'NONE',  ( -3.491481338843133355E-15, 1.224646799147353207E-16, -1.000000000000000000 ) ) ;
#129 = DATE_TIME_ROLE ( 'classification_date' ) ;
#130 = DIRECTION ( 'NONE',  ( 0.0000000000000000000, 1.000000000000000000, 0.0000000000000000000 ) ) ;
#131 = AXIS2_PLACEMENT_3D ( 'NONE', #112, #26, #130 ) ;
#132 = CALENDAR_DATE ( 2021, 1, 12 ) ;
#133 = CYLINDRICAL_SURFACE ( 'NONE', #96, 0.2999999999999993783 ) ;
#134 = DIRECTION ( 'NONE',  ( -4.814824860968101894E-31, -1.000000000000000000, -1.355252715606883994E-16 ) ) ;
#135 = LOCAL_TIME ( 8, 27, 13.00000000000000000, #252 ) ;
#136 = DIRECTION ( 'NONE',  ( 0.0000000000000000000, 1.000000000000000000, 0.0000000000000000000 ) ) ;
#137 = ADVANCED_FACE ( 'NONE', ( #56, #176 ), #50, .T. ) ;
#138 = FACE_OUTER_BOUND ( 'NONE', #257, .T. ) ;
#139 = FACE_OUTER_BOUND ( 'NONE', #207, .T. ) ;
#140 = APPLICATION_CONTEXT ( 'configuration controlled 3d designs of mechanical parts and assemblies' ) ;
#141 = PRODUCT_DEFINITION_FORMATION_WITH_SPECIFIED_SOURCE ( 'ANY', '', #106, .NOT_KNOWN. ) ;
#142 = APPROVAL_PERSON_ORGANIZATION ( #215, #51, #5 ) ;
#143 = CARTESIAN_POINT ( 'NONE',  ( -1.509068146735071051E-31, 5.293098533949701111E-33, -4.322142953899003618E-17 ) ) ;
#144 = APPLICATION_PROTOCOL_DEFINITION ( 'international standard', 'config_control_design', 1994, #111 ) ;
#145 = EDGE_LOOP ( 'NONE', ( #82 ) ) ;
#146 = CC_DESIGN_SECURITY_CLASSIFICATION ( #109, ( #141 ) ) ;
#147 = EDGE_CURVE ( 'NONE', #151, #151, #185, .T. ) ;
#148 = AXIS2_PLACEMENT_3D ( 'NONE', #278, #31, #81 ) ;
#149 = CARTESIAN_POINT ( 'NONE',  ( 2.094888803305880013E-14, 0.2999999999999990452, 6.000000000000000000 ) ) ;
#150 = EDGE_LOOP ( 'NONE', ( #38 ) ) ;
#151 = VERTEX_POINT ( 'NONE', #7 ) ;
#152 = CALENDAR_DATE ( 2021, 1, 12 ) ;
#153 = ORIENTED_EDGE ( 'NONE', *, *, #46, .F. ) ;
#154 = LOCAL_TIME ( 8, 27, 13.00000000000000000, #264 ) ;
#155 = DATE_AND_TIME ( #102, #239 ) ;
#156 = DIRECTION ( 'NONE',  ( 3.491481338843133355E-15, -1.224646799147353207E-16, 1.000000000000000000 ) ) ;
#157 = CARTESIAN_POINT ( 'NONE',  ( 1.396592535537253342E-14, 2.249639673992776148E-33, 4.000000000000000000 ) ) ;
#158 = CIRCLE ( 'NONE', #17, 0.2422649730810375324 ) ;
#159 = PERSON_AND_ORGANIZATION_ROLE ( 'classification_officer' ) ;
#160 = APPROVAL_PERSON_ORGANIZATION ( #88, #190, #43 ) ;
#161 = CARTESIAN_POINT ( 'NONE',  ( 2.094888803305880013E-14, -8.673617379884035472E-16, 6.000000000000000000 ) ) ;
#162 = CARTESIAN_POINT ( 'NONE',  ( 0.0000000000000000000, 0.0000000000000000000, 0.0000000000000000000 ) ) ;
#163 = ADVANCED_FACE ( 'NONE', ( #75 ), #11, .F. ) ;
#164 = ORIENTED_EDGE ( 'NONE', *, *, #266, .T. ) ;
#165 = DIRECTION ( 'NONE',  ( 0.0000000000000000000, 1.000000000000000000, 0.0000000000000000000 ) ) ;
#166 = AXIS2_PLACEMENT_3D ( 'NONE', #267, #8, #268 ) ;
#167 = EDGE_LOOP ( 'NONE', ( #1 ) ) ;
#168 = EDGE_LOOP ( 'NONE', ( #206 ) ) ;
#169 = CARTESIAN_POINT ( 'NONE',  ( 1.396592535537253342E-14, -4.898587196589412829E-16, 4.000000000000000000 ) ) ;
#170 = ORIENTED_EDGE ( 'NONE', *, *, #283, .T. ) ;
#171 = CC_DESIGN_PERSON_AND_ORGANIZATION_ASSIGNMENT ( #79, #21, ( #141 ) ) ;
#172 = APPROVAL_STATUS ( 'not_yet_approved' ) ;
#173 = EDGE_LOOP ( 'NONE', ( #170 ) ) ;
#174 = CARTESIAN_POINT ( 'NONE',  ( 2.216146677675516400E-14, 0.3303844939755805621, 6.347296355333847728 ) ) ;
#175 = APPROVAL_STATUS ( 'not_yet_approved' ) ;
#176 = FACE_OUTER_BOUND ( 'NONE', #240, .T. ) ;
#177 = PLANE ( 'NONE',  #124 ) ;
#178 = DATE_AND_TIME ( #219, #154 ) ;
#179 = FACE_OUTER_BOUND ( 'NONE', #225, .T. ) ;
#180 = ADVANCED_FACE ( 'NONE', ( #30 ), #72, .T. ) ;
#181 = PERSON ( 'UNSPECIFIED', 'UNSPECIFIED', 'UNSPECIFIED', ('UNSPECIFIED'), ('UNSPECIFIED'), ('UNSPECIFIED') ) ;
#182 = DIRECTION ( 'NONE',  ( 3.491481338843133355E-15, -1.224646799147353207E-16, 1.000000000000000000 ) ) ;
#183 = UNCERTAINTY_MEASURE_WITH_UNIT (LENGTH_MEASURE( 1.000000000000000082E-05 ), #89, 'distance_accuracy_value', 'NONE');
#184 = FACE_BOUND ( 'NONE', #209, .T. ) ;
#185 = CIRCLE ( 'NONE', #166, 0.2999999999999992117 ) ;
#186 = APPROVAL_ROLE ( '' ) ;
#187 = CC_DESIGN_PERSON_AND_ORGANIZATION_ASSIGNMENT ( #6, #49, ( #14 ) ) ;
#188 = AXIS2_PLACEMENT_3D ( 'NONE', #114, #250, #272 ) ;
#189 = DIRECTION ( 'NONE',  ( 4.275831445896957731E-31, 1.000000000000000000, 1.224646799147353207E-16 ) ) ;
#190 = APPROVAL ( #175, 'UNSPECIFIED' ) ;
#191 = VERTEX_POINT ( 'NONE', #199 ) ;
#192 = DATE_TIME_ROLE ( 'creation_date' ) ;
#193 = DATE_AND_TIME ( #71, #270 ) ;
#194 = TOROIDAL_SURFACE ( 'NONE', #271, 2.299999999999999822, 2.000000000000000000 ) ;
#195 = CARTESIAN_POINT ( 'NONE',  ( -7.545340733675355255E-32, 2.646549266974850555E-33, -2.161071476949501809E-17 ) ) ;
#196 = APPLICATION_PROTOCOL_DEFINITION ( 'international standard', 'config_control_design', 1994, #140 ) ;
#197 = CC_DESIGN_DATE_AND_TIME_ASSIGNMENT ( #19, #192, ( #14 ) ) ;
#198 = PLANE ( 'NONE',  #23 ) ;
#199 = CARTESIAN_POINT ( 'NONE',  ( 4.532122767380054041E-14, 1.499999999999995559, 12.98051551059335296 ) ) ;
#200 = DIRECTION ( 'NONE',  ( 3.491481338843133355E-15, -1.224646799147353207E-16, 1.000000000000000000 ) ) ;
#201 = DIRECTION ( 'NONE',  ( 0.0000000000000000000, 1.000000000000000000, 0.0000000000000000000 ) ) ;
#202 = ADVANCED_FACE ( 'NONE', ( #184, #179 ), #263, .T. ) ;
#203 = CARTESIAN_POINT ( 'NONE',  ( 3.491481338843132369E-16, -1.224646799147352807E-17, 0.09999999999999996392 ) ) ;
#204 = PERSON_AND_ORGANIZATION ( #181, #36 ) ;
#205 = AXIS2_PLACEMENT_3D ( 'NONE', #157, #156, #55 ) ;
#206 = ORIENTED_EDGE ( 'NONE', *, *, #46, .T. ) ;
#207 = EDGE_LOOP ( 'NONE', ( #18 ) ) ;
#208 = FACE_OUTER_BOUND ( 'NONE', #167, .T. ) ;
#209 = EDGE_LOOP ( 'NONE', ( #9 ) ) ;
#210 = CIRCLE ( 'NONE', #188, 0.2999999999999998224 ) ;
#211 = DIRECTION ( 'NONE',  ( 0.0000000000000000000, 1.000000000000000000, 0.0000000000000000000 ) ) ;
#212 = CIRCLE ( 'NONE', #45, 1.200000000000003286 ) ;
#213 = ADVANCED_FACE ( 'NONE', ( #247, #53 ), #194, .F. ) ;
#214 = DIRECTION ( 'NONE',  ( 1.000000000000000000, 0.0000000000000000000, 0.0000000000000000000 ) ) ;
#215 = PERSON_AND_ORGANIZATION ( #181, #36 ) ;
#216 = ORIENTED_EDGE ( 'NONE', *, *, #40, .T. ) ;
#217 = CARTESIAN_POINT ( 'NONE',  ( 1.396592535537253342E-14, 0.2999999999999991007, 4.000000000000000000 ) ) ;
#218 = LOCAL_TIME ( 8, 27, 13.00000000000000000, #265 ) ;
#219 = CALENDAR_DATE ( 2021, 1, 12 ) ;
#220 = ORIENTED_EDGE ( 'NONE', *, *, #40, .F. ) ;
#221 = VERTEX_POINT ( 'NONE', #24 ) ;
#222 = PRODUCT_DEFINITION_SHAPE ( 'NONE', 'NONE',  #14 ) ;
#223 = EDGE_CURVE ( 'NONE', #191, #191, #85, .T. ) ;
#224 = DIRECTION ( 'NONE',  ( 4.399344443121421646E-31, 1.000000000000000000, 1.224646799147353207E-16 ) ) ;
#225 = EDGE_LOOP ( 'NONE', ( #34 ) ) ;
#226 = AXIS2_PLACEMENT_3D ( 'NONE', #10, #94, #20 ) ;
#227 = DIRECTION ( 'NONE',  ( -3.491481338843133355E-15, 1.224646799147353207E-16, -1.000000000000000000 ) ) ;
#228 = CARTESIAN_POINT ( 'NONE',  ( 0.0000000000000000000, 0.0000000000000000000, 0.0000000000000000000 ) ) ;
#229 = APPROVAL_DATE_TIME ( #178, #190 ) ;
#230 = DIRECTION ( 'NONE',  ( -3.491481338843133355E-15, 1.224646799147353207E-16, -1.000000000000000000 ) ) ;
#231 = MANIFOLD_SOLID_BREP ( 'Corps-Déplacer/Copier1[2]', #92 ) ;
#232 = EDGE_LOOP ( 'NONE', ( #216 ) ) ;
#233 = EDGE_CURVE ( 'NONE', #243, #243, #210, .T. ) ;
#234 = FACE_OUTER_BOUND ( 'NONE', #274, .T. ) ;
#235 = CIRCLE ( 'NONE', #28, 1.500000000000003331 ) ;
#236 = DIRECTION ( 'NONE',  ( -3.491481338843133355E-15, 1.224646799147353207E-16, -1.000000000000000000 ) ) ;
#237 = DIRECTION ( 'NONE',  ( -3.491481338843133355E-15, 1.224646799147353207E-16, -1.000000000000000000 ) ) ;
#238 = EDGE_LOOP ( 'NONE', ( #260 ) ) ;
#239 = LOCAL_TIME ( 8, 27, 13.00000000000000000, #67 ) ;
#240 = EDGE_LOOP ( 'NONE', ( #262 ) ) ;
#241 = APPROVAL ( #42, 'UNSPECIFIED' ) ;
#242 = VERTEX_POINT ( 'NONE', #217 ) ;
#243 = VERTEX_POINT ( 'NONE', #149 ) ;
#244 = CC_DESIGN_PERSON_AND_ORGANIZATION_ASSIGNMENT ( #86, #2, ( #106 ) ) ;
#245 = CONICAL_SURFACE ( 'NONE', #116, 1.200000000000003286, 0.7853981633974453924 ) ;
#246 = PERSON_AND_ORGANIZATION_ROLE ( 'creator' ) ;
#247 = FACE_OUTER_BOUND ( 'NONE', #277, .T. ) ;
#248 = CARTESIAN_POINT ( 'NONE',  ( 1.396592535537253342E-14, 2.249639673992776148E-33, 4.000000000000000000 ) ) ;
#249 = DATE_AND_TIME ( #132, #135 ) ;
#250 = DIRECTION ( 'NONE',  ( -3.491481338843133355E-15, 1.224646799147353207E-16, -1.000000000000000000 ) ) ;
#251 = DIRECTION ( 'NONE',  ( 4.275831445896958607E-31, 1.000000000000000000, 1.224646799147353207E-16 ) ) ;
#252 = COORDINATED_UNIVERSAL_TIME_OFFSET ( 1, 0, .AHEAD. ) ;
#253 = CARTESIAN_POINT ( 'NONE',  ( 1.316288464743861212E-13, -4.616918432785521081E-15, 37.69999999999999574 ) ) ;
#254 = EDGE_LOOP ( 'NONE', ( #220 ) ) ;
#255 = DIRECTION ( 'NONE',  ( -3.491481338843133355E-15, 1.224646799147353207E-16, -1.000000000000000000 ) ) ;
#256 = ADVANCED_FACE ( 'NONE', ( #78, #29 ), #133, .T. ) ;
#257 = EDGE_LOOP ( 'NONE', ( #259 ) ) ;
#258 = AXIS2_PLACEMENT_3D ( 'NONE', #99, #255, #83 ) ;
#259 = ORIENTED_EDGE ( 'NONE', *, *, #66, .T. ) ;
#260 = ORIENTED_EDGE ( 'NONE', *, *, #283, .F. ) ;
#261 = VERTEX_POINT ( 'NONE', #25 ) ;
#262 = ORIENTED_EDGE ( 'NONE', *, *, #233, .T. ) ;
#263 = CONICAL_SURFACE ( 'NONE', #4, 0.2999999999999992117, 0.5235987755982921543 ) ;
#264 = COORDINATED_UNIVERSAL_TIME_OFFSET ( 1, 0, .AHEAD. ) ;
#265 = COORDINATED_UNIVERSAL_TIME_OFFSET ( 1, 0, .AHEAD. ) ;
#266 = EDGE_CURVE ( 'NONE', #242, #242, #276, .T. ) ;
#267 = CARTESIAN_POINT ( 'NONE',  ( 3.491481338843132369E-16, -1.224646799147352807E-17, 0.09999999999999996392 ) ) ;
#268 = DIRECTION ( 'NONE',  ( 4.814824860968101894E-31, 1.000000000000000000, 1.355252715606883994E-16 ) ) ;
#269 = DIRECTION ( 'NONE',  ( -4.275831445896958607E-31, -1.000000000000000000, -1.224646799147353207E-16 ) ) ;
#270 = LOCAL_TIME ( 8, 27, 13.00000000000000000, #103 ) ;
#271 = AXIS2_PLACEMENT_3D ( 'NONE', #161, #128, #224 ) ;
#272 = DIRECTION ( 'NONE',  ( 0.0000000000000000000, 1.000000000000000000, 0.0000000000000000000 ) ) ;
#273 = PERSON_AND_ORGANIZATION ( #181, #36 ) ;
#274 = EDGE_LOOP ( 'NONE', ( #120 ) ) ;
#275 = CC_DESIGN_PERSON_AND_ORGANIZATION_ASSIGNMENT ( #273, #246, ( #141 ) ) ;
#276 = CIRCLE ( 'NONE', #64, 0.2999999999999996003 ) ;
#277 = EDGE_LOOP ( 'NONE', ( #280 ) ) ;
#278 = CARTESIAN_POINT ( 'NONE',  ( 4.532122767380054041E-14, -1.589654677133071853E-15, 12.98051551059335296 ) ) ;
#279 = FACE_OUTER_BOUND ( 'NONE', #232, .T. ) ;
#280 = ORIENTED_EDGE ( 'NONE', *, *, #233, .F. ) ;
#281 = CARTESIAN_POINT ( 'NONE',  ( 1.326762908760390423E-13, -4.653657836759941941E-15, 38.00000000000000000 ) ) ;
#282 = CYLINDRICAL_SURFACE ( 'NONE', #258, 1.500000000000000000 ) ;
#283 = EDGE_CURVE ( 'NONE', #3, #3, #76, .T. ) ;
ENDSEC;
END-ISO-10303-21;
