ISO-10303-21;
HEADER;
FILE_DESCRIPTION (( 'STEP AP203' ),
    '1' );
FILE_NAME ('200739.step',
    '2021-12-01T07:27:13',
    ( '' ),
    ( '' ),
    'SwSTEP 2.0',
    'SolidWorks 2019',
    '' );
FILE_SCHEMA (( 'CONFIG_CONTROL_DESIGN' ));
ENDSEC;

DATA;
#1 = DIRECTION ( 'NONE',  ( -4.275831445896958607E-31, -1.000000000000000000, -1.224646799147353207E-16 ) ) ;
#2 = DIRECTION ( 'NONE',  ( -4.275831445896958607E-31, -1.000000000000000000, -1.224646799147353207E-16 ) ) ;
#3 = FACE_OUTER_BOUND ( 'NONE', #10, .T. ) ;
#4 = CLOSED_SHELL ( 'NONE', ( #155, #185, #23, #105 ) ) ;
#5 = EDGE_CURVE ( 'NONE', #275, #275, #94, .T. ) ;
#6 = APPROVAL_PERSON_ORGANIZATION ( #252, #180, #235 ) ;
#7 = DIRECTION ( 'NONE',  ( 4.275831445896958607E-31, 1.000000000000000000, 1.224646799147353207E-16 ) ) ;
#8 = AXIS2_PLACEMENT_3D ( 'NONE', #39, #240, #90 ) ;
#9 = PERSON_AND_ORGANIZATION ( #164, #124 ) ;
#10 = EDGE_LOOP ( 'NONE', ( #78 ) ) ;
#11 = CALENDAR_DATE ( 2021, 1, 12 ) ;
#12 = ADVANCED_FACE ( 'NONE', ( #215, #107 ), #114, .T. ) ;
#13 = ADVANCED_BREP_SHAPE_REPRESENTATION ( '200739', ( #282, #51, #182 ), #95 ) ;
#14 = EDGE_LOOP ( 'NONE', ( #122 ) ) ;
#15 = APPROVAL_PERSON_ORGANIZATION ( #199, #263, #196 ) ;
#16 = ORIENTED_EDGE ( 'NONE', *, *, #5, .T. ) ;
#17 = CC_DESIGN_SECURITY_CLASSIFICATION ( #198, ( #66 ) ) ;
#18 = DIRECTION ( 'NONE',  ( -3.491481338843133355E-15, 1.224646799147353207E-16, -1.000000000000000000 ) ) ;
#19 = DIRECTION ( 'NONE',  ( 0.0000000000000000000, 1.000000000000000000, 0.0000000000000000000 ) ) ;
#20 = DIRECTION ( 'NONE',  ( 4.400066741350804655E-31, 1.000000000000000000, 1.224646799147353207E-16 ) ) ;
#21 = AXIS2_PLACEMENT_3D ( 'NONE', #132, #170, #7 ) ;
#22 = DIRECTION ( 'NONE',  ( -3.491481338843133355E-15, 1.224646799147353207E-16, -1.000000000000000000 ) ) ;
#23 = ADVANCED_FACE ( 'NONE', ( #281, #65 ), #147, .T. ) ;
#24 = DIRECTION ( 'NONE',  ( 3.491481338843133355E-15, -1.224646799147353207E-16, 1.000000000000000000 ) ) ;
#25 = CC_DESIGN_APPROVAL ( #180, ( #126 ) ) ;
#26 = CARTESIAN_POINT ( 'NONE',  ( 3.491481338843132862E-16, -1.224646799147352961E-17, 0.09999999999999997780 ) ) ;
#27 = CONICAL_SURFACE ( 'NONE', #183, 1.499999999999996891, 0.1745329251994260922 ) ;
#28 = ADVANCED_FACE ( 'NONE', ( #244, #195 ), #168, .F. ) ;
#29 = SHAPE_DEFINITION_REPRESENTATION ( #135, #13 ) ;
#30 = MECHANICAL_CONTEXT ( 'NONE', #163, 'mechanical' ) ;
#31 = VERTEX_POINT ( 'NONE', #106 ) ;
#32 = EDGE_LOOP ( 'NONE', ( #187 ) ) ;
#33 = COORDINATED_UNIVERSAL_TIME_OFFSET ( 1, 0, .AHEAD. ) ;
#34 = DIRECTION ( 'NONE',  ( 3.491481338843133355E-15, -1.224646799147353207E-16, 1.000000000000000000 ) ) ;
#35 = EDGE_LOOP ( 'NONE', ( #82 ) ) ;
#36 = LOCAL_TIME ( 8, 27, 13.00000000000000000, #248 ) ;
#37 = VERTEX_POINT ( 'NONE', #172 ) ;
#38 = EDGE_LOOP ( 'NONE', ( #144 ) ) ;
#39 = CARTESIAN_POINT ( 'NONE',  ( 1.396592535537253342E-14, -4.898587196589412829E-16, 4.000000000000000000 ) ) ;
#40 = CARTESIAN_POINT ( 'NONE',  ( 4.581625703981344313E-14, 1.499999999999995559, 13.12229755608380088 ) ) ;
#41 = DIRECTION ( 'NONE',  ( 3.491481338843133355E-15, -1.224646799147353207E-16, 1.000000000000000000 ) ) ;
#42 = DATE_TIME_ROLE ( 'creation_date' ) ;
#43 = DIRECTION ( 'NONE',  ( 3.501690807976802213E-31, 1.000000000000000000, 9.856383386231885944E-17 ) ) ;
#44 = DIRECTION ( 'NONE',  ( 0.0000000000000000000, -1.000000000000000000, 0.0000000000000000000 ) ) ;
#45 = CIRCLE ( 'NONE', #56, 1.499999999999996891 ) ;
#46 = DIRECTION ( 'NONE',  ( -3.491481338843133355E-15, 1.224646799147353207E-16, -1.000000000000000000 ) ) ;
#47 = AXIS2_PLACEMENT_3D ( 'NONE', #239, #18, #111 ) ;
#48 = CIRCLE ( 'NONE', #8, 0.2749999999999996891 ) ;
#49 = CC_DESIGN_PERSON_AND_ORGANIZATION_ASSIGNMENT ( #52, #54, ( #66 ) ) ;
#50 = AXIS2_PLACEMENT_3D ( 'NONE', #243, #24, #2 ) ;
#51 = MANIFOLD_SOLID_BREP ( 'Corps-Déplacer/Copier1[2]', #4 ) ;
#52 = PERSON_AND_ORGANIZATION ( #164, #124 ) ;
#53 = EDGE_CURVE ( 'NONE', #253, #253, #93, .T. ) ;
#54 = PERSON_AND_ORGANIZATION_ROLE ( 'design_supplier' ) ;
#55 =( NAMED_UNIT ( * ) PLANE_ANGLE_UNIT ( ) SI_UNIT ( $, .RADIAN. ) );
#56 = AXIS2_PLACEMENT_3D ( 'NONE', #154, #192, #225 ) ;
#57 = EDGE_CURVE ( 'NONE', #211, #211, #48, .T. ) ;
#58 = ORIENTED_EDGE ( 'NONE', *, *, #53, .F. ) ;
#59 = APPROVAL_STATUS ( 'not_yet_approved' ) ;
#60 = APPROVAL_STATUS ( 'not_yet_approved' ) ;
#61 = CARTESIAN_POINT ( 'NONE',  ( 1.396592535537253342E-14, 0.2749999999999991895, 4.000000000000000000 ) ) ;
#62 =( NAMED_UNIT ( * ) SI_UNIT ( $, .STERADIAN. ) SOLID_ANGLE_UNIT ( ) );
#63 = ORIENTED_EDGE ( 'NONE', *, *, #57, .T. ) ;
#64 = DATE_AND_TIME ( #179, #36 ) ;
#65 = FACE_OUTER_BOUND ( 'NONE', #162, .T. ) ;
#66 = PRODUCT_DEFINITION_FORMATION_WITH_SPECIFIED_SOURCE ( 'ANY', '', #250, .NOT_KNOWN. ) ;
#67 = CIRCLE ( 'NONE', #21, 0.2172649730810375102 ) ;
#68 = CARTESIAN_POINT ( 'NONE',  ( 1.326762908760390423E-13, 1.199999999999998845, 38.00000000000000000 ) ) ;
#69 = CYLINDRICAL_SURFACE ( 'NONE', #270, 1.500000000000000000 ) ;
#70 = DIRECTION ( 'NONE',  ( 3.491481338843133355E-15, -1.224646799147353207E-16, 1.000000000000000000 ) ) ;
#71 = FACE_BOUND ( 'NONE', #38, .T. ) ;
#72 = CARTESIAN_POINT ( 'NONE',  ( 1.326762908760390423E-13, -4.653657836759941941E-15, 38.00000000000000000 ) ) ;
#73 = DIRECTION ( 'NONE',  ( 4.275831445896959482E-31, 1.000000000000000000, 1.224646799147353207E-16 ) ) ;
#74 = APPROVAL_STATUS ( 'not_yet_approved' ) ;
#75 = CIRCLE ( 'NONE', #141, 1.200000000000003286 ) ;
#76 = EDGE_CURVE ( 'NONE', #169, #169, #45, .T. ) ;
#77 = APPROVAL ( #60, 'UNSPECIFIED' ) ;
#78 = ORIENTED_EDGE ( 'NONE', *, *, #57, .F. ) ;
#79 = APPLICATION_PROTOCOL_DEFINITION ( 'international standard', 'config_control_design', 1994, #226 ) ;
#80 = CARTESIAN_POINT ( 'NONE',  ( 1.316288464743861212E-13, 1.499999999999998668, 37.69999999999999574 ) ) ;
#81 = APPROVAL_DATE_TIME ( #280, #180 ) ;
#82 = ORIENTED_EDGE ( 'NONE', *, *, #136, .T. ) ;
#83 = DIRECTION ( 'NONE',  ( -3.491481338843133355E-15, 1.224646799147353207E-16, -1.000000000000000000 ) ) ;
#84 = DIRECTION ( 'NONE',  ( 1.000000000000000000, 0.0000000000000000000, 0.0000000000000000000 ) ) ;
#85 = CLOSED_SHELL ( 'NONE', ( #257, #237, #28, #156, #221, #12, #175 ) ) ;
#86 = DIRECTION ( 'NONE',  ( -3.501690807976802213E-31, -1.000000000000000000, -9.856383386231885944E-17 ) ) ;
#87 = CIRCLE ( 'NONE', #193, 0.3053844939755810395 ) ;
#88 = DIRECTION ( 'NONE',  ( -3.491481338843133355E-15, 1.224646799147353207E-16, -1.000000000000000000 ) ) ;
#89 = CC_DESIGN_PERSON_AND_ORGANIZATION_ASSIGNMENT ( #143, #103, ( #126 ) ) ;
#90 = DIRECTION ( 'NONE',  ( 0.0000000000000000000, 1.000000000000000000, 0.0000000000000000000 ) ) ;
#91 = DIRECTION ( 'NONE',  ( 0.0000000000000000000, 1.000000000000000000, 0.0000000000000000000 ) ) ;
#92 = FACE_OUTER_BOUND ( 'NONE', #274, .T. ) ;
#93 = CIRCLE ( 'NONE', #213, 0.2749999999999996891 ) ;
#94 = CIRCLE ( 'NONE', #260, 1.500000000000003331 ) ;
#95 =( GEOMETRIC_REPRESENTATION_CONTEXT ( 3 ) GLOBAL_UNCERTAINTY_ASSIGNED_CONTEXT ( ( #116 ) ) GLOBAL_UNIT_ASSIGNED_CONTEXT ( ( #119, #55, #62 ) ) REPRESENTATION_CONTEXT ( 'NONE', 'WORKASPACE' ) );
#96 = APPROVAL_ROLE ( '' ) ;
#97 = EDGE_CURVE ( 'NONE', #166, #166, #219, .T. ) ;
#98 = AXIS2_PLACEMENT_3D ( 'NONE', #197, #151, #245 ) ;
#99 = CARTESIAN_POINT ( 'NONE',  ( 2.216146677675516400E-14, 0.3053844939755803178, 6.347296355333847728 ) ) ;
#100 = ORIENTED_EDGE ( 'NONE', *, *, #123, .T. ) ;
#101 = DATE_AND_TIME ( #11, #271 ) ;
#102 = ORIENTED_EDGE ( 'NONE', *, *, #269, .F. ) ;
#103 = PERSON_AND_ORGANIZATION_ROLE ( 'creator' ) ;
#104 = EDGE_LOOP ( 'NONE', ( #234 ) ) ;
#105 = ADVANCED_FACE ( 'NONE', ( #3 ), #220, .T. ) ;
#106 = CARTESIAN_POINT ( 'NONE',  ( 3.491481338843133848E-16, 0.2749999999999992450, 0.1000000000000000056 ) ) ;
#107 = FACE_BOUND ( 'NONE', #212, .T. ) ;
#108 = PLANE ( 'NONE',  #50 ) ;
#109 = EDGE_CURVE ( 'NONE', #37, #37, #67, .T. ) ;
#110 = AXIS2_PLACEMENT_3D ( 'NONE', #26, #22, #43 ) ;
#111 = DIRECTION ( 'NONE',  ( 4.275831445896958607E-31, 1.000000000000000000, 1.224646799147353207E-16 ) ) ;
#112 = PLANE ( 'NONE',  #150 ) ;
#113 = CYLINDRICAL_SURFACE ( 'NONE', #98, 0.2749999999999998557 ) ;
#114 = CONICAL_SURFACE ( 'NONE', #224, 1.200000000000003286, 0.7853981633974453924 ) ;
#115 = CC_DESIGN_PERSON_AND_ORGANIZATION_ASSIGNMENT ( #249, #227, ( #198 ) ) ;
#116 = UNCERTAINTY_MEASURE_WITH_UNIT (LENGTH_MEASURE( 1.000000000000000082E-05 ), #119, 'distance_accuracy_value', 'NONE');
#117 = EDGE_LOOP ( 'NONE', ( #125 ) ) ;
#118 = CIRCLE ( 'NONE', #110, 0.2749999999999992450 ) ;
#119 =( LENGTH_UNIT ( ) NAMED_UNIT ( * ) SI_UNIT ( .MILLI., .METRE. ) );
#120 = CARTESIAN_POINT ( 'NONE',  ( 1.316288464743861212E-13, -4.616918432785521081E-15, 37.69999999999999574 ) ) ;
#121 = LOCAL_TIME ( 8, 27, 13.00000000000000000, #186 ) ;
#122 = ORIENTED_EDGE ( 'NONE', *, *, #76, .F. ) ;
#123 = EDGE_CURVE ( 'NONE', #129, #129, #75, .T. ) ;
#124 = ORGANIZATION ( 'UNSPECIFIED', 'UNSPECIFIED', '' ) ;
#125 = ORIENTED_EDGE ( 'NONE', *, *, #109, .T. ) ;
#126 = PRODUCT_DEFINITION ( 'UNKNOWN', '', #66, #247 ) ;
#127 = CARTESIAN_POINT ( 'NONE',  ( 1.396592535537253342E-14, 2.062169701160044632E-33, 4.000000000000000000 ) ) ;
#128 = CARTESIAN_POINT ( 'NONE',  ( 0.0000000000000000000, 0.0000000000000000000, 0.0000000000000000000 ) ) ;
#129 = VERTEX_POINT ( 'NONE', #68 ) ;
#130 = FACE_OUTER_BOUND ( 'NONE', #167, .T. ) ;
#131 = CARTESIAN_POINT ( 'NONE',  ( 0.0000000000000000000, 0.0000000000000000000, 0.0000000000000000000 ) ) ;
#132 = CARTESIAN_POINT ( 'NONE',  ( -1.402172360587646604E-31, 4.918158588284236024E-33, -4.015981254112164761E-17 ) ) ;
#133 = CARTESIAN_POINT ( 'NONE',  ( 2.094888803305880013E-14, -7.347880794884119736E-16, 6.000000000000000000 ) ) ;
#134 = LOCAL_TIME ( 8, 27, 13.00000000000000000, #254 ) ;
#135 = PRODUCT_DEFINITION_SHAPE ( 'NONE', 'NONE',  #126 ) ;
#136 = EDGE_CURVE ( 'NONE', #31, #31, #118, .T. ) ;
#137 = ORIENTED_EDGE ( 'NONE', *, *, #123, .F. ) ;
#138 = DATE_AND_TIME ( #228, #121 ) ;
#139 = ORIENTED_EDGE ( 'NONE', *, *, #5, .F. ) ;
#140 = COORDINATED_UNIVERSAL_TIME_OFFSET ( 1, 0, .AHEAD. ) ;
#141 = AXIS2_PLACEMENT_3D ( 'NONE', #72, #218, #19 ) ;
#142 = CC_DESIGN_DATE_AND_TIME_ASSIGNMENT ( #101, #201, ( #198 ) ) ;
#143 = PERSON_AND_ORGANIZATION ( #164, #124 ) ;
#144 = ORIENTED_EDGE ( 'NONE', *, *, #109, .F. ) ;
#145 = CALENDAR_DATE ( 2021, 1, 12 ) ;
#146 = EDGE_LOOP ( 'NONE', ( #139 ) ) ;
#147 = CYLINDRICAL_SURFACE ( 'NONE', #47, 0.2749999999999994671 ) ;
#148 = DIRECTION ( 'NONE',  ( 0.0000000000000000000, 0.0000000000000000000, 1.000000000000000000 ) ) ;
#149 = CC_DESIGN_PERSON_AND_ORGANIZATION_ASSIGNMENT ( #188, #276, ( #250 ) ) ;
#150 = AXIS2_PLACEMENT_3D ( 'NONE', #176, #46, #266 ) ;
#151 = DIRECTION ( 'NONE',  ( -3.491481338843133355E-15, 1.224646799147353207E-16, -1.000000000000000000 ) ) ;
#152 = FACE_BOUND ( 'NONE', #255, .T. ) ;
#153 = FACE_OUTER_BOUND ( 'NONE', #14, .T. ) ;
#154 = CARTESIAN_POINT ( 'NONE',  ( 4.581625703981344313E-14, -1.607017969951716191E-15, 13.12229755608380088 ) ) ;
#155 = ADVANCED_FACE ( 'NONE', ( #191 ), #108, .F. ) ;
#156 = ADVANCED_FACE ( 'NONE', ( #152, #264 ), #27, .T. ) ;
#157 = AXIS2_PLACEMENT_3D ( 'NONE', #127, #70, #1 ) ;
#158 = APPROVAL_PERSON_ORGANIZATION ( #9, #77, #96 ) ;
#159 = LOCAL_TIME ( 8, 27, 13.00000000000000000, #140 ) ;
#160 = DIRECTION ( 'NONE',  ( -3.491481338843133355E-15, 1.224646799147353207E-16, -1.000000000000000000 ) ) ;
#161 = CC_DESIGN_PERSON_AND_ORGANIZATION_ASSIGNMENT ( #209, #204, ( #66 ) ) ;
#162 = EDGE_LOOP ( 'NONE', ( #63 ) ) ;
#163 = APPLICATION_CONTEXT ( 'configuration controlled 3d designs of mechanical parts and assemblies' ) ;
#164 = PERSON ( 'UNSPECIFIED', 'UNSPECIFIED', 'UNSPECIFIED', ('UNSPECIFIED'), ('UNSPECIFIED'), ('UNSPECIFIED') ) ;
#165 = DIRECTION ( 'NONE',  ( -3.491481338843133355E-15, 1.224646799147353207E-16, -1.000000000000000000 ) ) ;
#166 = VERTEX_POINT ( 'NONE', #238 ) ;
#167 = EDGE_LOOP ( 'NONE', ( #16 ) ) ;
#168 = TOROIDAL_SURFACE ( 'NONE', #203, 2.274999999999999911, 2.000000000000000000 ) ;
#169 = VERTEX_POINT ( 'NONE', #40 ) ;
#170 = DIRECTION ( 'NONE',  ( -3.491481338843133355E-15, 1.224646799147353207E-16, -1.000000000000000000 ) ) ;
#171 = AXIS2_PLACEMENT_3D ( 'NONE', #133, #88, #91 ) ;
#172 = CARTESIAN_POINT ( 'NONE',  ( -4.731839565957902296E-32, 0.2172649730810375102, -1.355252715606880234E-17 ) ) ;
#173 = FACE_OUTER_BOUND ( 'NONE', #35, .T. ) ;
#174 = CARTESIAN_POINT ( 'NONE',  ( 4.581625703981344313E-14, -1.607017969951716191E-15, 13.12229755608380088 ) ) ;
#175 = ADVANCED_FACE ( 'NONE', ( #92 ), #112, .F. ) ;
#176 = CARTESIAN_POINT ( 'NONE',  ( 1.326762908760390423E-13, 8.998558695971103225E-33, 38.00000000000000000 ) ) ;
#177 = CC_DESIGN_APPROVAL ( #263, ( #66 ) ) ;
#178 = CARTESIAN_POINT ( 'NONE',  ( 3.491481338843132862E-16, -1.224646799147352961E-17, 0.09999999999999997780 ) ) ;
#179 = CALENDAR_DATE ( 2021, 1, 12 ) ;
#180 = APPROVAL ( #59, 'UNSPECIFIED' ) ;
#181 = SECURITY_CLASSIFICATION_LEVEL ( 'unclassified' ) ;
#182 = AXIS2_PLACEMENT_3D ( 'NONE', #128, #148, #84 ) ;
#183 = AXIS2_PLACEMENT_3D ( 'NONE', #174, #241, #44 ) ;
#184 = ORIENTED_EDGE ( 'NONE', *, *, #76, .T. ) ;
#185 = ADVANCED_FACE ( 'NONE', ( #71, #173 ), #262, .T. ) ;
#186 = COORDINATED_UNIVERSAL_TIME_OFFSET ( 1, 0, .AHEAD. ) ;
#187 = ORIENTED_EDGE ( 'NONE', *, *, #97, .T. ) ;
#188 = PERSON_AND_ORGANIZATION ( #164, #124 ) ;
#189 = DIRECTION ( 'NONE',  ( 0.0000000000000000000, 1.000000000000000000, 0.0000000000000000000 ) ) ;
#190 = CALENDAR_DATE ( 2021, 1, 12 ) ;
#191 = FACE_OUTER_BOUND ( 'NONE', #117, .T. ) ;
#192 = DIRECTION ( 'NONE',  ( -3.491481338843133355E-15, 1.224646799147353207E-16, -1.000000000000000000 ) ) ;
#193 = AXIS2_PLACEMENT_3D ( 'NONE', #278, #160, #232 ) ;
#194 = CARTESIAN_POINT ( 'NONE',  ( 1.396592535537253342E-14, -4.898587196589412829E-16, 4.000000000000000000 ) ) ;
#195 = FACE_OUTER_BOUND ( 'NONE', #259, .T. ) ;
#196 = APPROVAL_ROLE ( '' ) ;
#197 = CARTESIAN_POINT ( 'NONE',  ( 0.0000000000000000000, 0.0000000000000000000, 0.0000000000000000000 ) ) ;
#198 = SECURITY_CLASSIFICATION ( '', '', #181 ) ;
#199 = PERSON_AND_ORGANIZATION ( #164, #124 ) ;
#200 = APPROVAL_DATE_TIME ( #138, #77 ) ;
#201 = DATE_TIME_ROLE ( 'classification_date' ) ;
#202 = PLANE ( 'NONE',  #207 ) ;
#203 = AXIS2_PLACEMENT_3D ( 'NONE', #222, #242, #20 ) ;
#204 = PERSON_AND_ORGANIZATION_ROLE ( 'creator' ) ;
#205 = FACE_OUTER_BOUND ( 'NONE', #210, .T. ) ;
#206 = PRODUCT_RELATED_PRODUCT_CATEGORY ( 'detail', '', ( #250 ) ) ;
#207 = AXIS2_PLACEMENT_3D ( 'NONE', #256, #34, #273 ) ;
#208 = EDGE_LOOP ( 'NONE', ( #231 ) ) ;
#209 = PERSON_AND_ORGANIZATION ( #164, #124 ) ;
#210 = EDGE_LOOP ( 'NONE', ( #251 ) ) ;
#211 = VERTEX_POINT ( 'NONE', #217 ) ;
#212 = EDGE_LOOP ( 'NONE', ( #100 ) ) ;
#213 = AXIS2_PLACEMENT_3D ( 'NONE', #194, #283, #261 ) ;
#214 = EDGE_LOOP ( 'NONE', ( #184 ) ) ;
#215 = FACE_OUTER_BOUND ( 'NONE', #146, .T. ) ;
#216 = APPLICATION_PROTOCOL_DEFINITION ( 'international standard', 'config_control_design', 1994, #163 ) ;
#217 = CARTESIAN_POINT ( 'NONE',  ( 1.396592535537253342E-14, 0.2749999999999991895, 4.000000000000000000 ) ) ;
#218 = DIRECTION ( 'NONE',  ( -3.491481338843133355E-15, 1.224646799147353207E-16, -1.000000000000000000 ) ) ;
#219 = CIRCLE ( 'NONE', #171, 0.2749999999999999667 ) ;
#220 = PLANE ( 'NONE',  #157 ) ;
#221 = ADVANCED_FACE ( 'NONE', ( #153, #130 ), #69, .T. ) ;
#222 = CARTESIAN_POINT ( 'NONE',  ( 2.094888803305880013E-14, -8.673617379884035472E-16, 6.000000000000000000 ) ) ;
#223 = FACE_OUTER_BOUND ( 'NONE', #236, .T. ) ;
#224 = AXIS2_PLACEMENT_3D ( 'NONE', #279, #83, #258 ) ;
#225 = DIRECTION ( 'NONE',  ( 0.0000000000000000000, 1.000000000000000000, 0.0000000000000000000 ) ) ;
#226 = APPLICATION_CONTEXT ( 'configuration controlled 3d designs of mechanical parts and assemblies' ) ;
#227 = PERSON_AND_ORGANIZATION_ROLE ( 'classification_officer' ) ;
#228 = CALENDAR_DATE ( 2021, 1, 12 ) ;
#229 = VERTEX_POINT ( 'NONE', #99 ) ;
#230 = CC_DESIGN_DATE_AND_TIME_ASSIGNMENT ( #265, #42, ( #126 ) ) ;
#231 = ORIENTED_EDGE ( 'NONE', *, *, #136, .F. ) ;
#232 = DIRECTION ( 'NONE',  ( 0.0000000000000000000, 1.000000000000000000, 0.0000000000000000000 ) ) ;
#233 = AXIS2_PLACEMENT_3D ( 'NONE', #178, #41, #86 ) ;
#234 = ORIENTED_EDGE ( 'NONE', *, *, #97, .F. ) ;
#235 = APPROVAL_ROLE ( '' ) ;
#236 = EDGE_LOOP ( 'NONE', ( #58 ) ) ;
#237 = ADVANCED_FACE ( 'NONE', ( #223, #268 ), #113, .T. ) ;
#238 = CARTESIAN_POINT ( 'NONE',  ( 2.094888803305880013E-14, 0.2749999999999991895, 6.000000000000000000 ) ) ;
#239 = CARTESIAN_POINT ( 'NONE',  ( 0.0000000000000000000, 0.0000000000000000000, 0.0000000000000000000 ) ) ;
#240 = DIRECTION ( 'NONE',  ( -3.491481338843133355E-15, 1.224646799147353207E-16, -1.000000000000000000 ) ) ;
#241 = DIRECTION ( 'NONE',  ( 3.491481338843133355E-15, -1.224646799147353207E-16, 1.000000000000000000 ) ) ;
#242 = DIRECTION ( 'NONE',  ( -3.491481338843133355E-15, 1.224646799147353207E-16, -1.000000000000000000 ) ) ;
#243 = CARTESIAN_POINT ( 'NONE',  ( -7.010861802938233021E-32, 2.459079294142118012E-33, -2.007990627056082381E-17 ) ) ;
#244 = FACE_OUTER_BOUND ( 'NONE', #104, .T. ) ;
#245 = DIRECTION ( 'NONE',  ( 4.275831445896958607E-31, 1.000000000000000000, 1.224646799147353207E-16 ) ) ;
#246 = CC_DESIGN_APPROVAL ( #77, ( #198 ) ) ;
#247 = DESIGN_CONTEXT ( 'detailed design', #226, 'design' ) ;
#248 = COORDINATED_UNIVERSAL_TIME_OFFSET ( 1, 0, .AHEAD. ) ;
#249 = PERSON_AND_ORGANIZATION ( #164, #124 ) ;
#250 = PRODUCT ( '200739', '200739', '', ( #30 ) ) ;
#251 = ORIENTED_EDGE ( 'NONE', *, *, #53, .T. ) ;
#252 = PERSON_AND_ORGANIZATION ( #164, #124 ) ;
#253 = VERTEX_POINT ( 'NONE', #61 ) ;
#254 = COORDINATED_UNIVERSAL_TIME_OFFSET ( 1, 0, .AHEAD. ) ;
#255 = EDGE_LOOP ( 'NONE', ( #102 ) ) ;
#256 = CARTESIAN_POINT ( 'NONE',  ( 1.396592535537253342E-14, 2.062169701160044632E-33, 4.000000000000000000 ) ) ;
#257 = ADVANCED_FACE ( 'NONE', ( #205 ), #202, .F. ) ;
#258 = DIRECTION ( 'NONE',  ( 0.0000000000000000000, 1.000000000000000000, 0.0000000000000000000 ) ) ;
#259 = EDGE_LOOP ( 'NONE', ( #272 ) ) ;
#260 = AXIS2_PLACEMENT_3D ( 'NONE', #120, #165, #189 ) ;
#261 = DIRECTION ( 'NONE',  ( 0.0000000000000000000, 1.000000000000000000, 0.0000000000000000000 ) ) ;
#262 = CONICAL_SURFACE ( 'NONE', #233, 0.2749999999999992450, 0.5235987755982925984 ) ;
#263 = APPROVAL ( #74, 'UNSPECIFIED' ) ;
#264 = FACE_OUTER_BOUND ( 'NONE', #214, .T. ) ;
#265 = DATE_AND_TIME ( #190, #134 ) ;
#266 = DIRECTION ( 'NONE',  ( 4.275831445896958607E-31, 1.000000000000000000, 1.224646799147353207E-16 ) ) ;
#267 = DIRECTION ( 'NONE',  ( -3.491481338843133355E-15, 1.224646799147353207E-16, -1.000000000000000000 ) ) ;
#268 = FACE_OUTER_BOUND ( 'NONE', #32, .T. ) ;
#269 = EDGE_CURVE ( 'NONE', #229, #229, #87, .T. ) ;
#270 = AXIS2_PLACEMENT_3D ( 'NONE', #131, #267, #73 ) ;
#271 = LOCAL_TIME ( 8, 27, 13.00000000000000000, #33 ) ;
#272 = ORIENTED_EDGE ( 'NONE', *, *, #269, .T. ) ;
#273 = DIRECTION ( 'NONE',  ( -4.275831445896958607E-31, -1.000000000000000000, -1.224646799147353207E-16 ) ) ;
#274 = EDGE_LOOP ( 'NONE', ( #137 ) ) ;
#275 = VERTEX_POINT ( 'NONE', #80 ) ;
#276 = PERSON_AND_ORGANIZATION_ROLE ( 'design_owner' ) ;
#277 = APPROVAL_DATE_TIME ( #64, #263 ) ;
#278 = CARTESIAN_POINT ( 'NONE',  ( 2.216146677675516400E-14, -7.773196164799257849E-16, 6.347296355333847728 ) ) ;
#279 = CARTESIAN_POINT ( 'NONE',  ( 1.326762908760390423E-13, -4.653657836759941941E-15, 38.00000000000000000 ) ) ;
#280 = DATE_AND_TIME ( #145, #159 ) ;
#281 = FACE_OUTER_BOUND ( 'NONE', #208, .T. ) ;
#282 = MANIFOLD_SOLID_BREP ( 'Corps-Déplacer/Copier1[1]', #85 ) ;
#283 = DIRECTION ( 'NONE',  ( -3.491481338843133355E-15, 1.224646799147353207E-16, -1.000000000000000000 ) ) ;
ENDSEC;
END-ISO-10303-21;
