ISO-10303-21;
HEADER;
FILE_DESCRIPTION (( 'STEP AP203' ),
    '1' );
FILE_NAME ('200738.step',
    '2021-12-01T07:27:12',
    ( '' ),
    ( '' ),
    'SwSTEP 2.0',
    'SolidWorks 2019',
    '' );
FILE_SCHEMA (( 'CONFIG_CONTROL_DESIGN' ));
ENDSEC;

DATA;
#1 = DIRECTION ( 'NONE',  ( -3.491481338843133355E-15, 1.224646799147353207E-16, -1.000000000000000000 ) ) ;
#2 = CARTESIAN_POINT ( 'NONE',  ( 1.326762908760390423E-13, 1.199999999999998845, 38.00000000000000000 ) ) ;
#3 = PRODUCT_DEFINITION_SHAPE ( 'NONE', 'NONE',  #162 ) ;
#4 = VERTEX_POINT ( 'NONE', #80 ) ;
#5 = PLANE ( 'NONE',  #95 ) ;
#6 = CARTESIAN_POINT ( 'NONE',  ( 0.0000000000000000000, 0.2022649730810377189, 0.0000000000000000000 ) ) ;
#7 = LOCAL_TIME ( 8, 27, 12.00000000000000000, #138 ) ;
#8 = AXIS2_PLACEMENT_3D ( 'NONE', #134, #30, #113 ) ;
#9 = SECURITY_CLASSIFICATION_LEVEL ( 'unclassified' ) ;
#10 = CARTESIAN_POINT ( 'NONE',  ( 2.216146677675516400E-14, 0.2903844939755808041, 6.347296355333847728 ) ) ;
#11 = CARTESIAN_POINT ( 'NONE',  ( -4.324254661517014718E-32, 1.516744360340617850E-33, -1.238515759316591901E-17 ) ) ;
#12 = DIRECTION ( 'NONE',  ( 0.0000000000000000000, 0.0000000000000000000, 1.000000000000000000 ) ) ;
#13 = EDGE_LOOP ( 'NONE', ( #255 ) ) ;
#14 = PERSON_AND_ORGANIZATION_ROLE ( 'design_supplier' ) ;
#15 = AXIS2_PLACEMENT_3D ( 'NONE', #233, #103, #166 ) ;
#16 = ORIENTED_EDGE ( 'NONE', *, *, #135, .F. ) ;
#17 = DIRECTION ( 'NONE',  ( -3.491481338843133355E-15, 1.224646799147353207E-16, -1.000000000000000000 ) ) ;
#18 = CARTESIAN_POINT ( 'NONE',  ( 0.0000000000000000000, 0.0000000000000000000, 0.0000000000000000000 ) ) ;
#19 = TOROIDAL_SURFACE ( 'NONE', #90, 2.260000000000000231, 2.000000000000000000 ) ;
#20 = CC_DESIGN_PERSON_AND_ORGANIZATION_ASSIGNMENT ( #114, #204, ( #24 ) ) ;
#21 = DIRECTION ( 'NONE',  ( -3.491481338843133355E-15, 1.224646799147353207E-16, -1.000000000000000000 ) ) ;
#22 = FACE_OUTER_BOUND ( 'NONE', #129, .T. ) ;
#23 = FACE_OUTER_BOUND ( 'NONE', #89, .T. ) ;
#24 = SECURITY_CLASSIFICATION ( '', '', #9 ) ;
#25 = FACE_BOUND ( 'NONE', #181, .T. ) ;
#26 = CALENDAR_DATE ( 2021, 1, 12 ) ;
#27 = APPROVAL ( #28, 'UNSPECIFIED' ) ;
#28 = APPROVAL_STATUS ( 'not_yet_approved' ) ;
#29 = ORIENTED_EDGE ( 'NONE', *, *, #44, .T. ) ;
#30 = DIRECTION ( 'NONE',  ( -3.491481338843133355E-15, 1.224646799147353207E-16, -1.000000000000000000 ) ) ;
#31 = DATE_AND_TIME ( #247, #266 ) ;
#32 = DIRECTION ( 'NONE',  ( -3.491481338843133355E-15, 1.224646799147353207E-16, -1.000000000000000000 ) ) ;
#33 = CARTESIAN_POINT ( 'NONE',  ( 0.0000000000000000000, 0.0000000000000000000, 0.0000000000000000000 ) ) ;
#34 = CC_DESIGN_PERSON_AND_ORGANIZATION_ASSIGNMENT ( #112, #253, ( #234 ) ) ;
#35 = DIRECTION ( 'NONE',  ( -3.703711431513923018E-31, -1.000000000000000000, -1.042502088928371876E-16 ) ) ;
#36 = DIRECTION ( 'NONE',  ( 0.0000000000000000000, 1.000000000000000000, 0.0000000000000000000 ) ) ;
#37 = DIRECTION ( 'NONE',  ( 4.275831445896958607E-31, 1.000000000000000000, 1.224646799147353207E-16 ) ) ;
#38 = CARTESIAN_POINT ( 'NONE',  ( 0.0000000000000000000, 0.0000000000000000000, 0.0000000000000000000 ) ) ;
#39 = CIRCLE ( 'NONE', #240, 1.499999999999996891 ) ;
#40 = EDGE_CURVE ( 'NONE', #62, #62, #101, .T. ) ;
#41 = DIRECTION ( 'NONE',  ( -4.275831445896958607E-31, -1.000000000000000000, -1.224646799147353207E-16 ) ) ;
#42 = CARTESIAN_POINT ( 'NONE',  ( 1.396592535537253342E-14, 0.2599999999999993983, 4.000000000000000000 ) ) ;
#43 = DIRECTION ( 'NONE',  ( -3.491481338843133355E-15, 1.224646799147353207E-16, -1.000000000000000000 ) ) ;
#44 = EDGE_CURVE ( 'NONE', #4, #4, #39, .T. ) ;
#45 = CIRCLE ( 'NONE', #88, 0.2599999999999998423 ) ;
#46 = AXIS2_PLACEMENT_3D ( 'NONE', #231, #32, #249 ) ;
#47 = PERSON_AND_ORGANIZATION ( #143, #140 ) ;
#48 = ORIENTED_EDGE ( 'NONE', *, *, #53, .T. ) ;
#49 = CC_DESIGN_APPROVAL ( #173, ( #283 ) ) ;
#50 = CYLINDRICAL_SURFACE ( 'NONE', #8, 1.500000000000000000 ) ;
#51 = PERSON_AND_ORGANIZATION ( #143, #140 ) ;
#52 = EDGE_LOOP ( 'NONE', ( #141 ) ) ;
#53 = EDGE_CURVE ( 'NONE', #61, #61, #123, .T. ) ;
#54 = CARTESIAN_POINT ( 'NONE',  ( 3.491481338843132862E-16, -1.224646799147352961E-17, 0.09999999999999997780 ) ) ;
#55 = CONICAL_SURFACE ( 'NONE', #15, 1.499999999999996891, 0.1745329251994260644 ) ;
#56 = EDGE_LOOP ( 'NONE', ( #269 ) ) ;
#57 = DIRECTION ( 'NONE',  ( -3.491481338843133355E-15, 1.224646799147353207E-16, -1.000000000000000000 ) ) ;
#58 = DIRECTION ( 'NONE',  ( 3.703711431513923018E-31, 1.000000000000000000, 1.042502088928371876E-16 ) ) ;
#59 = ADVANCED_FACE ( 'NONE', ( #229, #119 ), #19, .F. ) ;
#60 = VERTEX_POINT ( 'NONE', #148 ) ;
#61 = VERTEX_POINT ( 'NONE', #104 ) ;
#62 = VERTEX_POINT ( 'NONE', #239 ) ;
#63 = CLOSED_SHELL ( 'NONE', ( #64, #86, #212, #196 ) ) ;
#64 = ADVANCED_FACE ( 'NONE', ( #115 ), #154, .F. ) ;
#65 = ORIENTED_EDGE ( 'NONE', *, *, #40, .F. ) ;
#66 = ADVANCED_FACE ( 'NONE', ( #93, #71 ), #50, .T. ) ;
#67 = CC_DESIGN_DATE_AND_TIME_ASSIGNMENT ( #68, #155, ( #162 ) ) ;
#68 = DATE_AND_TIME ( #244, #107 ) ;
#69 = ORIENTED_EDGE ( 'NONE', *, *, #216, .F. ) ;
#70 = PERSON_AND_ORGANIZATION ( #143, #140 ) ;
#71 = FACE_OUTER_BOUND ( 'NONE', #100, .T. ) ;
#72 = LOCAL_TIME ( 8, 27, 12.00000000000000000, #206 ) ;
#73 = APPLICATION_PROTOCOL_DEFINITION ( 'international standard', 'config_control_design', 1994, #198 ) ;
#74 = DIRECTION ( 'NONE',  ( 3.491481338843133355E-15, -1.224646799147353207E-16, 1.000000000000000000 ) ) ;
#75 = APPROVAL_DATE_TIME ( #31, #173 ) ;
#76 = FACE_OUTER_BOUND ( 'NONE', #52, .T. ) ;
#77 = EDGE_LOOP ( 'NONE', ( #16 ) ) ;
#78 = ADVANCED_FACE ( 'NONE', ( #203 ), #179, .F. ) ;
#79 = AXIS2_PLACEMENT_3D ( 'NONE', #33, #12, #271 ) ;
#80 = CARTESIAN_POINT ( 'NONE',  ( 4.611327465942118351E-14, 1.499999999999995559, 13.20736678337806680 ) ) ;
#81 = FACE_OUTER_BOUND ( 'NONE', #132, .T. ) ;
#82 = FACE_OUTER_BOUND ( 'NONE', #150, .T. ) ;
#83 = DIRECTION ( 'NONE',  ( -3.491481338843133355E-15, 1.224646799147353207E-16, -1.000000000000000000 ) ) ;
#84 = AXIS2_PLACEMENT_3D ( 'NONE', #105, #214, #58 ) ;
#85 = CARTESIAN_POINT ( 'NONE',  ( 1.396592535537253342E-14, -4.898587196589412829E-16, 4.000000000000000000 ) ) ;
#86 = ADVANCED_FACE ( 'NONE', ( #254, #76 ), #261, .T. ) ;
#87 = EDGE_LOOP ( 'NONE', ( #69 ) ) ;
#88 = AXIS2_PLACEMENT_3D ( 'NONE', #85, #184, #237 ) ;
#89 = EDGE_LOOP ( 'NONE', ( #48 ) ) ;
#90 = AXIS2_PLACEMENT_3D ( 'NONE', #278, #159, #205 ) ;
#91 = ADVANCED_FACE ( 'NONE', ( #118, #218 ), #236, .T. ) ;
#92 = CIRCLE ( 'NONE', #248, 0.2903844939755815258 ) ;
#93 = FACE_OUTER_BOUND ( 'NONE', #13, .T. ) ;
#94 = EDGE_LOOP ( 'NONE', ( #208 ) ) ;
#95 = AXIS2_PLACEMENT_3D ( 'NONE', #282, #43, #146 ) ;
#96 = APPROVAL_DATE_TIME ( #176, #120 ) ;
#97 = ADVANCED_FACE ( 'NONE', ( #122 ), #5, .F. ) ;
#98 = DIRECTION ( 'NONE',  ( -3.491481338843133355E-15, 1.224646799147353207E-16, -1.000000000000000000 ) ) ;
#99 =( LENGTH_UNIT ( ) NAMED_UNIT ( * ) SI_UNIT ( .MILLI., .METRE. ) );
#100 = EDGE_LOOP ( 'NONE', ( #223 ) ) ;
#101 = CIRCLE ( 'NONE', #46, 0.2600000000000001199 ) ;
#102 = DIRECTION ( 'NONE',  ( -3.491481338843133355E-15, 1.224646799147353207E-16, -1.000000000000000000 ) ) ;
#103 = DIRECTION ( 'NONE',  ( 3.491481338843133355E-15, -1.224646799147353207E-16, 1.000000000000000000 ) ) ;
#104 = CARTESIAN_POINT ( 'NONE',  ( 1.396592535537253342E-14, 0.2599999999999993983, 4.000000000000000000 ) ) ;
#105 = CARTESIAN_POINT ( 'NONE',  ( 3.491481338843132862E-16, -1.224646799147352961E-17, 0.09999999999999997780 ) ) ;
#106 = LOCAL_TIME ( 8, 27, 12.00000000000000000, #277 ) ;
#107 = LOCAL_TIME ( 8, 27, 12.00000000000000000, #160 ) ;
#108 = CC_DESIGN_PERSON_AND_ORGANIZATION_ASSIGNMENT ( #47, #14, ( #283 ) ) ;
#109 = CIRCLE ( 'NONE', #186, 1.500000000000003331 ) ;
#110 = EDGE_LOOP ( 'NONE', ( #225 ) ) ;
#111 = PRODUCT_RELATED_PRODUCT_CATEGORY ( 'detail', '', ( #234 ) ) ;
#112 = PERSON_AND_ORGANIZATION ( #143, #140 ) ;
#113 = DIRECTION ( 'NONE',  ( 4.275831445896959482E-31, 1.000000000000000000, 1.224646799147353207E-16 ) ) ;
#114 = PERSON_AND_ORGANIZATION ( #143, #140 ) ;
#115 = FACE_OUTER_BOUND ( 'NONE', #242, .T. ) ;
#116 = AXIS2_PLACEMENT_3D ( 'NONE', #38, #102, #262 ) ;
#117 = APPROVAL_ROLE ( '' ) ;
#118 = FACE_OUTER_BOUND ( 'NONE', #77, .T. ) ;
#119 = FACE_OUTER_BOUND ( 'NONE', #56, .T. ) ;
#120 = APPROVAL ( #250, 'UNSPECIFIED' ) ;
#121 = ADVANCED_BREP_SHAPE_REPRESENTATION ( '200738', ( #270, #273, #79 ), #200 ) ;
#122 = FACE_OUTER_BOUND ( 'NONE', #87, .T. ) ;
#123 = CIRCLE ( 'NONE', #174, 0.2599999999999998423 ) ;
#124 = CARTESIAN_POINT ( 'NONE',  ( -8.648509323034029436E-32, 3.033488720681235699E-33, -2.477031518633183802E-17 ) ) ;
#125 = CARTESIAN_POINT ( 'NONE',  ( 1.326762908760390423E-13, -4.653657836759941941E-15, 38.00000000000000000 ) ) ;
#126 = DIRECTION ( 'NONE',  ( 0.0000000000000000000, 1.000000000000000000, 0.0000000000000000000 ) ) ;
#127 = AXIS2_PLACEMENT_3D ( 'NONE', #11, #246, #251 ) ;
#128 = CARTESIAN_POINT ( 'NONE',  ( 1.396592535537253342E-14, 1.949687717460406885E-33, 4.000000000000000000 ) ) ;
#129 = EDGE_LOOP ( 'NONE', ( #156 ) ) ;
#130 = PERSON_AND_ORGANIZATION_ROLE ( 'creator' ) ;
#131 = DATE_TIME_ROLE ( 'classification_date' ) ;
#132 = EDGE_LOOP ( 'NONE', ( #197 ) ) ;
#133 = CIRCLE ( 'NONE', #84, 0.2599999999999994538 ) ;
#134 = CARTESIAN_POINT ( 'NONE',  ( 0.0000000000000000000, 0.0000000000000000000, 0.0000000000000000000 ) ) ;
#135 = EDGE_CURVE ( 'NONE', #165, #165, #109, .T. ) ;
#136 = COORDINATED_UNIVERSAL_TIME_OFFSET ( 1, 0, .AHEAD. ) ;
#137 = DIRECTION ( 'NONE',  ( -4.275831445896958607E-31, -1.000000000000000000, -1.224646799147353207E-16 ) ) ;
#138 = COORDINATED_UNIVERSAL_TIME_OFFSET ( 1, 0, .AHEAD. ) ;
#139 = DIRECTION ( 'NONE',  ( 3.491481338843133355E-15, -1.224646799147353207E-16, 1.000000000000000000 ) ) ;
#140 = ORGANIZATION ( 'UNSPECIFIED', 'UNSPECIFIED', '' ) ;
#141 = ORIENTED_EDGE ( 'NONE', *, *, #221, .T. ) ;
#142 = DIRECTION ( 'NONE',  ( 0.0000000000000000000, 1.000000000000000000, 0.0000000000000000000 ) ) ;
#143 = PERSON ( 'UNSPECIFIED', 'UNSPECIFIED', 'UNSPECIFIED', ('UNSPECIFIED'), ('UNSPECIFIED'), ('UNSPECIFIED') ) ;
#144 = FACE_OUTER_BOUND ( 'NONE', #228, .T. ) ;
#145 = APPROVAL_PERSON_ORGANIZATION ( #51, #173, #175 ) ;
#146 = DIRECTION ( 'NONE',  ( 4.275831445896958607E-31, 1.000000000000000000, 1.224646799147353207E-16 ) ) ;
#147 = DIRECTION ( 'NONE',  ( 3.491481338843133355E-15, -1.224646799147353207E-16, 1.000000000000000000 ) ) ;
#148 = CARTESIAN_POINT ( 'NONE',  ( 3.491481338843133848E-16, 0.2599999999999994538, 0.1000000000000000056 ) ) ;
#149 = CC_DESIGN_APPROVAL ( #27, ( #24 ) ) ;
#150 = EDGE_LOOP ( 'NONE', ( #29 ) ) ;
#151 = AXIS2_PLACEMENT_3D ( 'NONE', #18, #83, #170 ) ;
#152 = APPLICATION_CONTEXT ( 'configuration controlled 3d designs of mechanical parts and assemblies' ) ;
#153 = APPLICATION_PROTOCOL_DEFINITION ( 'international standard', 'config_control_design', 1994, #152 ) ;
#154 = PLANE ( 'NONE',  #127 ) ;
#155 = DATE_TIME_ROLE ( 'creation_date' ) ;
#156 = ORIENTED_EDGE ( 'NONE', *, *, #209, .F. ) ;
#157 = APPROVAL_PERSON_ORGANIZATION ( #199, #27, #117 ) ;
#158 = MECHANICAL_CONTEXT ( 'NONE', #152, 'mechanical' ) ;
#159 = DIRECTION ( 'NONE',  ( -3.491481338843133355E-15, 1.224646799147353207E-16, -1.000000000000000000 ) ) ;
#160 = COORDINATED_UNIVERSAL_TIME_OFFSET ( 1, 0, .AHEAD. ) ;
#161 = CARTESIAN_POINT ( 'NONE',  ( 1.396592535537253342E-14, -4.898587196589412829E-16, 4.000000000000000000 ) ) ;
#162 = PRODUCT_DEFINITION ( 'UNKNOWN', '', #283, #226 ) ;
#163 = EDGE_LOOP ( 'NONE', ( #65 ) ) ;
#164 = AXIS2_PLACEMENT_3D ( 'NONE', #128, #147, #41 ) ;
#165 = VERTEX_POINT ( 'NONE', #238 ) ;
#166 = DIRECTION ( 'NONE',  ( 0.0000000000000000000, -1.000000000000000000, 0.0000000000000000000 ) ) ;
#167 = CC_DESIGN_PERSON_AND_ORGANIZATION_ASSIGNMENT ( #268, #130, ( #283 ) ) ;
#168 = CYLINDRICAL_SURFACE ( 'NONE', #116, 0.2600000000000000089 ) ;
#169 = AXIS2_PLACEMENT_3D ( 'NONE', #189, #57, #171 ) ;
#170 = DIRECTION ( 'NONE',  ( 4.275831445896958607E-31, 1.000000000000000000, 1.224646799147352961E-16 ) ) ;
#171 = DIRECTION ( 'NONE',  ( 0.0000000000000000000, 1.000000000000000000, 0.0000000000000000000 ) ) ;
#172 = VERTEX_POINT ( 'NONE', #10 ) ;
#173 = APPROVAL ( #202, 'UNSPECIFIED' ) ;
#174 = AXIS2_PLACEMENT_3D ( 'NONE', #161, #98, #36 ) ;
#175 = APPROVAL_ROLE ( '' ) ;
#176 = DATE_AND_TIME ( #274, #106 ) ;
#177 = ORIENTED_EDGE ( 'NONE', *, *, #252, .T. ) ;
#178 = APPROVAL_ROLE ( '' ) ;
#179 = PLANE ( 'NONE',  #256 ) ;
#180 = PERSON_AND_ORGANIZATION_ROLE ( 'creator' ) ;
#181 = EDGE_LOOP ( 'NONE', ( #280 ) ) ;
#182 = EDGE_LOOP ( 'NONE', ( #195 ) ) ;
#183 = CALENDAR_DATE ( 2021, 1, 12 ) ;
#184 = DIRECTION ( 'NONE',  ( -3.491481338843133355E-15, 1.224646799147353207E-16, -1.000000000000000000 ) ) ;
#185 = CLOSED_SHELL ( 'NONE', ( #78, #241, #59, #187, #66, #91, #97 ) ) ;
#186 = AXIS2_PLACEMENT_3D ( 'NONE', #192, #1, #235 ) ;
#187 = ADVANCED_FACE ( 'NONE', ( #25, #82 ), #55, .T. ) ;
#188 = SHAPE_DEFINITION_REPRESENTATION ( #3, #121 ) ;
#189 = CARTESIAN_POINT ( 'NONE',  ( 1.326762908760390423E-13, -4.653657836759941941E-15, 38.00000000000000000 ) ) ;
#190 = DATE_AND_TIME ( #183, #72 ) ;
#191 = VERTEX_POINT ( 'NONE', #2 ) ;
#192 = CARTESIAN_POINT ( 'NONE',  ( 1.316288464743861212E-13, -4.616918432785521081E-15, 37.69999999999999574 ) ) ;
#193 = CIRCLE ( 'NONE', #243, 0.2022649730810377189 ) ;
#194 = VERTEX_POINT ( 'NONE', #42 ) ;
#195 = ORIENTED_EDGE ( 'NONE', *, *, #216, .T. ) ;
#196 = ADVANCED_FACE ( 'NONE', ( #210 ), #263, .T. ) ;
#197 = ORIENTED_EDGE ( 'NONE', *, *, #221, .F. ) ;
#198 = APPLICATION_CONTEXT ( 'configuration controlled 3d designs of mechanical parts and assemblies' ) ;
#199 = PERSON_AND_ORGANIZATION ( #143, #140 ) ;
#200 =( GEOMETRIC_REPRESENTATION_CONTEXT ( 3 ) GLOBAL_UNCERTAINTY_ASSIGNED_CONTEXT ( ( #267 ) ) GLOBAL_UNIT_ASSIGNED_CONTEXT ( ( #99, #224, #279 ) ) REPRESENTATION_CONTEXT ( 'NONE', 'WORKASPACE' ) );
#201 = DIRECTION ( 'NONE',  ( 0.0000000000000000000, 1.000000000000000000, 0.0000000000000000000 ) ) ;
#202 = APPROVAL_STATUS ( 'not_yet_approved' ) ;
#203 = FACE_OUTER_BOUND ( 'NONE', #94, .T. ) ;
#204 = PERSON_AND_ORGANIZATION_ROLE ( 'classification_officer' ) ;
#205 = DIRECTION ( 'NONE',  ( 4.400504189574232877E-31, 1.000000000000000000, 1.224646799147353207E-16 ) ) ;
#206 = COORDINATED_UNIVERSAL_TIME_OFFSET ( 1, 0, .AHEAD. ) ;
#207 = EDGE_LOOP ( 'NONE', ( #219 ) ) ;
#208 = ORIENTED_EDGE ( 'NONE', *, *, #209, .T. ) ;
#209 = EDGE_CURVE ( 'NONE', #194, #194, #45, .T. ) ;
#210 = FACE_OUTER_BOUND ( 'NONE', #110, .T. ) ;
#211 = AXIS2_PLACEMENT_3D ( 'NONE', #125, #215, #142 ) ;
#212 = ADVANCED_FACE ( 'NONE', ( #81, #23 ), #259, .T. ) ;
#213 = DIRECTION ( 'NONE',  ( -3.491481338843133355E-15, 1.224646799147353207E-16, -1.000000000000000000 ) ) ;
#214 = DIRECTION ( 'NONE',  ( -3.491481338843133355E-15, 1.224646799147353207E-16, -1.000000000000000000 ) ) ;
#215 = DIRECTION ( 'NONE',  ( -3.491481338843133355E-15, 1.224646799147353207E-16, -1.000000000000000000 ) ) ;
#216 = EDGE_CURVE ( 'NONE', #191, #191, #264, .T. ) ;
#217 = CC_DESIGN_APPROVAL ( #120, ( #162 ) ) ;
#218 = FACE_BOUND ( 'NONE', #182, .T. ) ;
#219 = ORIENTED_EDGE ( 'NONE', *, *, #252, .F. ) ;
#220 = CC_DESIGN_PERSON_AND_ORGANIZATION_ASSIGNMENT ( #70, #180, ( #162 ) ) ;
#221 = EDGE_CURVE ( 'NONE', #60, #60, #133, .T. ) ;
#222 = AXIS2_PLACEMENT_3D ( 'NONE', #54, #139, #35 ) ;
#223 = ORIENTED_EDGE ( 'NONE', *, *, #135, .T. ) ;
#224 =( NAMED_UNIT ( * ) PLANE_ANGLE_UNIT ( ) SI_UNIT ( $, .RADIAN. ) );
#225 = ORIENTED_EDGE ( 'NONE', *, *, #53, .F. ) ;
#226 = DESIGN_CONTEXT ( 'detailed design', #198, 'design' ) ;
#227 = PERSON_AND_ORGANIZATION ( #143, #140 ) ;
#228 = EDGE_LOOP ( 'NONE', ( #265 ) ) ;
#229 = FACE_OUTER_BOUND ( 'NONE', #163, .T. ) ;
#230 = APPROVAL_PERSON_ORGANIZATION ( #227, #120, #178 ) ;
#231 = CARTESIAN_POINT ( 'NONE',  ( 2.094888803305880013E-14, -7.347880794884119736E-16, 6.000000000000000000 ) ) ;
#232 = APPROVAL_DATE_TIME ( #190, #27 ) ;
#233 = CARTESIAN_POINT ( 'NONE',  ( 4.611327465942118351E-14, -1.617435945642902360E-15, 13.20736678337806680 ) ) ;
#234 = PRODUCT ( '200738', '200738', '', ( #158 ) ) ;
#235 = DIRECTION ( 'NONE',  ( 0.0000000000000000000, 1.000000000000000000, 0.0000000000000000000 ) ) ;
#236 = CONICAL_SURFACE ( 'NONE', #211, 1.200000000000003286, 0.7853981633974453924 ) ;
#237 = DIRECTION ( 'NONE',  ( 0.0000000000000000000, 1.000000000000000000, 0.0000000000000000000 ) ) ;
#238 = CARTESIAN_POINT ( 'NONE',  ( 1.316288464743861212E-13, 1.499999999999998668, 37.69999999999999574 ) ) ;
#239 = CARTESIAN_POINT ( 'NONE',  ( 2.094888803305880013E-14, 0.2599999999999993983, 6.000000000000000000 ) ) ;
#240 = AXIS2_PLACEMENT_3D ( 'NONE', #272, #17, #201 ) ;
#241 = ADVANCED_FACE ( 'NONE', ( #22, #144 ), #168, .T. ) ;
#242 = EDGE_LOOP ( 'NONE', ( #177 ) ) ;
#243 = AXIS2_PLACEMENT_3D ( 'NONE', #124, #213, #37 ) ;
#244 = CALENDAR_DATE ( 2021, 1, 12 ) ;
#245 = DATE_AND_TIME ( #26, #7 ) ;
#246 = DIRECTION ( 'NONE',  ( 3.491481338843133355E-15, -1.224646799147353207E-16, 1.000000000000000000 ) ) ;
#247 = CALENDAR_DATE ( 2021, 1, 12 ) ;
#248 = AXIS2_PLACEMENT_3D ( 'NONE', #260, #21, #126 ) ;
#249 = DIRECTION ( 'NONE',  ( 0.0000000000000000000, 1.000000000000000000, 0.0000000000000000000 ) ) ;
#250 = APPROVAL_STATUS ( 'not_yet_approved' ) ;
#251 = DIRECTION ( 'NONE',  ( -4.275831445896958607E-31, -1.000000000000000000, -1.224646799147353207E-16 ) ) ;
#252 = EDGE_CURVE ( 'NONE', #258, #258, #193, .T. ) ;
#253 = PERSON_AND_ORGANIZATION_ROLE ( 'design_owner' ) ;
#254 = FACE_BOUND ( 'NONE', #207, .T. ) ;
#255 = ORIENTED_EDGE ( 'NONE', *, *, #44, .F. ) ;
#256 = AXIS2_PLACEMENT_3D ( 'NONE', #276, #74, #137 ) ;
#257 = CC_DESIGN_DATE_AND_TIME_ASSIGNMENT ( #245, #131, ( #24 ) ) ;
#258 = VERTEX_POINT ( 'NONE', #6 ) ;
#259 = CYLINDRICAL_SURFACE ( 'NONE', #151, 0.2599999999999996758 ) ;
#260 = CARTESIAN_POINT ( 'NONE',  ( 2.216146677675516400E-14, -7.773196164799257849E-16, 6.347296355333847728 ) ) ;
#261 = CONICAL_SURFACE ( 'NONE', #222, 0.2599999999999994538, 0.5235987755982923764 ) ;
#262 = DIRECTION ( 'NONE',  ( 4.275831445896958607E-31, 1.000000000000000000, 1.224646799147353207E-16 ) ) ;
#263 = PLANE ( 'NONE',  #164 ) ;
#264 = CIRCLE ( 'NONE', #169, 1.200000000000003286 ) ;
#265 = ORIENTED_EDGE ( 'NONE', *, *, #40, .T. ) ;
#266 = LOCAL_TIME ( 8, 27, 12.00000000000000000, #136 ) ;
#267 = UNCERTAINTY_MEASURE_WITH_UNIT (LENGTH_MEASURE( 1.000000000000000082E-05 ), #99, 'distance_accuracy_value', 'NONE');
#268 = PERSON_AND_ORGANIZATION ( #143, #140 ) ;
#269 = ORIENTED_EDGE ( 'NONE', *, *, #281, .T. ) ;
#270 = MANIFOLD_SOLID_BREP ( 'Corps-Déplacer/Copier1[1]', #185 ) ;
#271 = DIRECTION ( 'NONE',  ( 1.000000000000000000, 0.0000000000000000000, 0.0000000000000000000 ) ) ;
#272 = CARTESIAN_POINT ( 'NONE',  ( 4.611327465942118351E-14, -1.617435945642902360E-15, 13.20736678337806680 ) ) ;
#273 = MANIFOLD_SOLID_BREP ( 'Corps-Déplacer/Copier1[2]', #63 ) ;
#274 = CALENDAR_DATE ( 2021, 1, 12 ) ;
#275 = CC_DESIGN_SECURITY_CLASSIFICATION ( #24, ( #283 ) ) ;
#276 = CARTESIAN_POINT ( 'NONE',  ( 1.396592535537253342E-14, 1.949687717460406885E-33, 4.000000000000000000 ) ) ;
#277 = COORDINATED_UNIVERSAL_TIME_OFFSET ( 1, 0, .AHEAD. ) ;
#278 = CARTESIAN_POINT ( 'NONE',  ( 2.094888803305880013E-14, -8.673617379884035472E-16, 6.000000000000000000 ) ) ;
#279 =( NAMED_UNIT ( * ) SI_UNIT ( $, .STERADIAN. ) SOLID_ANGLE_UNIT ( ) );
#280 = ORIENTED_EDGE ( 'NONE', *, *, #281, .F. ) ;
#281 = EDGE_CURVE ( 'NONE', #172, #172, #92, .T. ) ;
#282 = CARTESIAN_POINT ( 'NONE',  ( 1.326762908760390423E-13, 8.998558695971103225E-33, 38.00000000000000000 ) ) ;
#283 = PRODUCT_DEFINITION_FORMATION_WITH_SPECIFIED_SOURCE ( 'ANY', '', #234, .NOT_KNOWN. ) ;
ENDSEC;
END-ISO-10303-21;
