ISO-10303-21;
HEADER;
FILE_DESCRIPTION (( 'STEP AP203' ),
    '1' );
FILE_NAME ('200735.step',
    '2021-12-01T10:39:53',
    ( '' ),
    ( '' ),
    'SwSTEP 2.0',
    'SolidWorks 2019',
    '' );
FILE_SCHEMA (( 'CONFIG_CONTROL_DESIGN' ));
ENDSEC;

DATA;
#1 = DIRECTION ( 'NONE',  ( -3.491481338843133355E-15, 1.224646799147353207E-16, -1.000000000000000000 ) ) ;
#2 = FACE_OUTER_BOUND ( 'NONE', #68, .T. ) ;
#3 = LOCAL_TIME ( 11, 39, 53.00000000000000000, #209 ) ;
#4 = FACE_OUTER_BOUND ( 'NONE', #234, .T. ) ;
#5 = ADVANCED_FACE ( 'NONE', ( #168, #164 ), #93, .T. ) ;
#6 = CARTESIAN_POINT ( 'NONE',  ( 4.660183614865709118E-14, 0.6653844939755798604, 13.34729635533384595 ) ) ;
#7 = CARTESIAN_POINT ( 'NONE',  ( 1.316288464743861212E-13, 1.499999999999998668, 37.69999999999999574 ) ) ;
#8 = CC_DESIGN_PERSON_AND_ORGANIZATION_ASSIGNMENT ( #271, #117, ( #179 ) ) ;
#9 = AXIS2_PLACEMENT_3D ( 'NONE', #174, #131, #53 ) ;
#10 = PLANE ( 'NONE',  #9 ) ;
#11 = DIRECTION ( 'NONE',  ( -3.491481338843133355E-15, 1.224646799147353207E-16, -1.000000000000000000 ) ) ;
#12 = COORDINATED_UNIVERSAL_TIME_OFFSET ( 1, 0, .AHEAD. ) ;
#13 = CC_DESIGN_APPROVAL ( #186, ( #179 ) ) ;
#14 = ADVANCED_FACE ( 'NONE', ( #295, #250 ), #161, .F. ) ;
#15 = PERSON_AND_ORGANIZATION_ROLE ( 'classification_officer' ) ;
#16 = EDGE_LOOP ( 'NONE', ( #210 ) ) ;
#17 = ORIENTED_EDGE ( 'NONE', *, *, #121, .T. ) ;
#18 = ADVANCED_FACE ( 'NONE', ( #166, #4 ), #92, .T. ) ;
#19 = AXIS2_PLACEMENT_3D ( 'NONE', #218, #56, #266 ) ;
#20 = DIRECTION ( 'NONE',  ( -3.491481338843133355E-15, 1.224646799147353207E-16, -1.000000000000000000 ) ) ;
#21 = ORIENTED_EDGE ( 'NONE', *, *, #229, .T. ) ;
#22 = CARTESIAN_POINT ( 'NONE',  ( -4.268654729436518868E-31, 1.497242529384892422E-32, -1.222591305858416570E-16 ) ) ;
#23 = AXIS2_PLACEMENT_3D ( 'NONE', #274, #300, #94 ) ;
#24 = DIRECTION ( 'NONE',  ( 3.491481338843133355E-15, -1.224646799147353207E-16, 1.000000000000000000 ) ) ;
#25 = FACE_OUTER_BOUND ( 'NONE', #62, .T. ) ;
#26 = DIRECTION ( 'NONE',  ( -3.491481338843133355E-15, 1.224646799147353207E-16, -1.000000000000000000 ) ) ;
#27 = CIRCLE ( 'NONE', #35, 0.6653844939755814147 ) ;
#28 = DIRECTION ( 'NONE',  ( -3.491481338843133355E-15, 1.224646799147353207E-16, -1.000000000000000000 ) ) ;
#29 = CARTESIAN_POINT ( 'NONE',  ( 2.094888803305880013E-14, 0.6999999999999992895, 6.000000000000000000 ) ) ;
#30 = LOCAL_TIME ( 11, 39, 53.00000000000000000, #12 ) ;
#31 = DIRECTION ( 'NONE',  ( 1.000000000000000000, 0.0000000000000000000, 0.0000000000000000000 ) ) ;
#32 = DIRECTION ( 'NONE',  ( 0.0000000000000000000, 1.000000000000000000, 0.0000000000000000000 ) ) ;
#33 = CARTESIAN_POINT ( 'NONE',  ( 6.312820354112950673E-14, 1.499999999999995559, 18.08063610102134788 ) ) ;
#34 = ADVANCED_FACE ( 'NONE', ( #213, #102 ), #151, .T. ) ;
#35 = AXIS2_PLACEMENT_3D ( 'NONE', #255, #242, #283 ) ;
#36 = EDGE_LOOP ( 'NONE', ( #188 ) ) ;
#37 = APPROVAL_ROLE ( '' ) ;
#38 = ORIENTED_EDGE ( 'NONE', *, *, #235, .F. ) ;
#39 = CALENDAR_DATE ( 2021, 1, 12 ) ;
#40 = ORIENTED_EDGE ( 'NONE', *, *, #235, .T. ) ;
#41 = EDGE_LOOP ( 'NONE', ( #60 ) ) ;
#42 = CLOSED_SHELL ( 'NONE', ( #288, #44, #34, #14, #18, #5, #165, #57 ) ) ;
#43 = SECURITY_CLASSIFICATION_LEVEL ( 'unclassified' ) ;
#44 = ADVANCED_FACE ( 'NONE', ( #215, #79 ), #233, .T. ) ;
#45 = EDGE_LOOP ( 'NONE', ( #208 ) ) ;
#46 = CARTESIAN_POINT ( 'NONE',  ( 8.728703347107831416E-16, -3.061616997868382402E-17, 0.2499999999999999445 ) ) ;
#47 = DIRECTION ( 'NONE',  ( -3.491481338843133355E-15, 1.224646799147353207E-16, -1.000000000000000000 ) ) ;
#48 = AXIS2_PLACEMENT_3D ( 'NONE', #99, #173, #263 ) ;
#49 = DIRECTION ( 'NONE',  ( 4.275831445896958607E-31, 1.000000000000000000, 1.224646799147353207E-16 ) ) ;
#50 = DIRECTION ( 'NONE',  ( 0.0000000000000000000, 1.000000000000000000, 0.0000000000000000000 ) ) ;
#51 = CARTESIAN_POINT ( 'NONE',  ( 2.094888803305880013E-14, -7.347880794884119736E-16, 6.000000000000000000 ) ) ;
#52 = CLOSED_SHELL ( 'NONE', ( #257, #189, #127, #202 ) ) ;
#53 = DIRECTION ( 'NONE',  ( -4.275831445896958607E-31, -1.000000000000000000, -1.224646799147353207E-16 ) ) ;
#54 = CARTESIAN_POINT ( 'NONE',  ( 1.326762908760390423E-13, 1.199999999999998845, 38.00000000000000000 ) ) ;
#55 = AXIS2_PLACEMENT_3D ( 'NONE', #75, #170, #238 ) ;
#56 = DIRECTION ( 'NONE',  ( 3.491481338843133355E-15, -1.224646799147353207E-16, 1.000000000000000000 ) ) ;
#57 = ADVANCED_FACE ( 'NONE', ( #25 ), #171, .F. ) ;
#58 = VERTEX_POINT ( 'NONE', #128 ) ;
#59 = CALENDAR_DATE ( 2021, 1, 12 ) ;
#60 = ORIENTED_EDGE ( 'NONE', *, *, #176, .F. ) ;
#61 = APPROVAL_STATUS ( 'not_yet_approved' ) ;
#62 = EDGE_LOOP ( 'NONE', ( #71 ) ) ;
#63 = CC_DESIGN_PERSON_AND_ORGANIZATION_ASSIGNMENT ( #270, #183, ( #301 ) ) ;
#64 = PRODUCT_DEFINITION_SHAPE ( 'NONE', 'NONE',  #298 ) ;
#65 = DATE_AND_TIME ( #294, #30 ) ;
#66 = EDGE_LOOP ( 'NONE', ( #38 ) ) ;
#67 = DATE_TIME_ROLE ( 'classification_date' ) ;
#68 = EDGE_LOOP ( 'NONE', ( #182 ) ) ;
#69 = CONICAL_SURFACE ( 'NONE', #253, 1.200000000000003286, 0.7853981633974453924 ) ;
#70 = DATE_AND_TIME ( #59, #302 ) ;
#71 = ORIENTED_EDGE ( 'NONE', *, *, #180, .F. ) ;
#72 = AXIS2_PLACEMENT_3D ( 'NONE', #46, #144, #236 ) ;
#73 = EDGE_CURVE ( 'NONE', #106, #106, #175, .T. ) ;
#74 = FACE_BOUND ( 'NONE', #95, .T. ) ;
#75 = CARTESIAN_POINT ( 'NONE',  ( 2.094888803305880013E-14, 5.249159239316490680E-33, 6.000000000000000000 ) ) ;
#76 = DIRECTION ( 'NONE',  ( 0.0000000000000000000, -1.000000000000000000, 0.0000000000000000000 ) ) ;
#77 = CIRCLE ( 'NONE', #245, 0.6349999999999991207 ) ;
#78 = DIRECTION ( 'NONE',  ( -3.491481338843133355E-15, 1.224646799147353207E-16, -1.000000000000000000 ) ) ;
#79 = FACE_BOUND ( 'NONE', #141, .T. ) ;
#80 = PRODUCT_RELATED_PRODUCT_CATEGORY ( 'detail', '', ( #301 ) ) ;
#81 = CARTESIAN_POINT ( 'NONE',  ( 6.312820354112950673E-14, -2.214239312766387668E-15, 18.08063610102134788 ) ) ;
#82 = AXIS2_PLACEMENT_3D ( 'NONE', #133, #11, #264 ) ;
#83 = DIRECTION ( 'NONE',  ( 0.0000000000000000000, 0.0000000000000000000, 1.000000000000000000 ) ) ;
#84 = CC_DESIGN_PERSON_AND_ORGANIZATION_ASSIGNMENT ( #276, #187, ( #179 ) ) ;
#85 = CC_DESIGN_SECURITY_CLASSIFICATION ( #265, ( #179 ) ) ;
#86 = CARTESIAN_POINT ( 'NONE',  ( 8.728703347107835360E-16, 0.6999999999999992895, 0.2500000000000000555 ) ) ;
#87 = DESIGN_CONTEXT ( 'detailed design', #267, 'design' ) ;
#88 = APPROVAL_DATE_TIME ( #275, #186 ) ;
#89 = EDGE_CURVE ( 'NONE', #246, #246, #77, .T. ) ;
#90 = EDGE_LOOP ( 'NONE', ( #231 ) ) ;
#91 = APPROVAL_DATE_TIME ( #65, #134 ) ;
#92 = CONICAL_SURFACE ( 'NONE', #280, 1.499999999999997558, 0.1745329251994258701 ) ;
#93 = CYLINDRICAL_SURFACE ( 'NONE', #23, 1.500000000000000444 ) ;
#94 = DIRECTION ( 'NONE',  ( 4.275831445896958607E-31, 1.000000000000000000, 1.224646799147353207E-16 ) ) ;
#95 = EDGE_LOOP ( 'NONE', ( #206 ) ) ;
#96 = FACE_OUTER_BOUND ( 'NONE', #114, .T. ) ;
#97 =( GEOMETRIC_REPRESENTATION_CONTEXT ( 3 ) GLOBAL_UNCERTAINTY_ASSIGNED_CONTEXT ( ( #226 ) ) GLOBAL_UNIT_ASSIGNED_CONTEXT ( ( #291, #200, #155 ) ) REPRESENTATION_CONTEXT ( 'NONE', 'WORKASPACE' ) );
#98 = DIRECTION ( 'NONE',  ( 4.275831445896958607E-31, 1.000000000000000000, 1.224646799147353207E-16 ) ) ;
#99 = CARTESIAN_POINT ( 'NONE',  ( 8.728703347107831416E-16, -3.061616997868382402E-17, 0.2499999999999999445 ) ) ;
#100 = CARTESIAN_POINT ( 'NONE',  ( 1.326762908760390423E-13, -4.653657836759941941E-15, 38.00000000000000000 ) ) ;
#101 = AXIS2_PLACEMENT_3D ( 'NONE', #81, #221, #197 ) ;
#102 = FACE_OUTER_BOUND ( 'NONE', #90, .T. ) ;
#103 = CC_DESIGN_PERSON_AND_ORGANIZATION_ASSIGNMENT ( #230, #185, ( #298 ) ) ;
#104 = FACE_OUTER_BOUND ( 'NONE', #228, .T. ) ;
#105 = VERTEX_POINT ( 'NONE', #268 ) ;
#106 = VERTEX_POINT ( 'NONE', #86 ) ;
#107 = VERTEX_POINT ( 'NONE', #7 ) ;
#108 = APPLICATION_PROTOCOL_DEFINITION ( 'international standard', 'config_control_design', 1994, #261 ) ;
#109 = CIRCLE ( 'NONE', #120, 0.6999999999999999556 ) ;
#110 = PERSON_AND_ORGANIZATION ( #142, #140 ) ;
#111 = APPLICATION_PROTOCOL_DEFINITION ( 'international standard', 'config_control_design', 1994, #267 ) ;
#112 = EDGE_LOOP ( 'NONE', ( #160 ) ) ;
#113 = DATE_AND_TIME ( #296, #3 ) ;
#114 = EDGE_LOOP ( 'NONE', ( #17 ) ) ;
#115 = PERSON_AND_ORGANIZATION ( #142, #140 ) ;
#116 = CIRCLE ( 'NONE', #290, 0.5556624327025948551 ) ;
#117 = PERSON_AND_ORGANIZATION_ROLE ( 'creator' ) ;
#118 = ORIENTED_EDGE ( 'NONE', *, *, #73, .T. ) ;
#119 = DIRECTION ( 'NONE',  ( -3.491481338843133355E-15, 1.224646799147353207E-16, -1.000000000000000000 ) ) ;
#120 = AXIS2_PLACEMENT_3D ( 'NONE', #219, #289, #32 ) ;
#121 = EDGE_CURVE ( 'NONE', #222, #222, #167, .T. ) ;
#122 = CARTESIAN_POINT ( 'NONE',  ( 2.134197053277487885E-14, -7.485755575918360694E-16, 6.112583302491979786 ) ) ;
#123 = CARTESIAN_POINT ( 'NONE',  ( 1.326762908760390423E-13, 8.998558695971103225E-33, 38.00000000000000000 ) ) ;
#124 = FACE_OUTER_BOUND ( 'NONE', #297, .T. ) ;
#125 = AXIS2_PLACEMENT_3D ( 'NONE', #260, #169, #50 ) ;
#126 = DIRECTION ( 'NONE',  ( -3.491481338843133355E-15, 1.224646799147353207E-16, -1.000000000000000000 ) ) ;
#127 = ADVANCED_FACE ( 'NONE', ( #259, #96 ), #256, .T. ) ;
#128 = CARTESIAN_POINT ( 'NONE',  ( -1.892735826383161356E-31, 0.5556624327025948551, -5.421010862427522170E-17 ) ) ;
#129 = AXIS2_PLACEMENT_3D ( 'NONE', #123, #78, #49 ) ;
#130 = CC_DESIGN_PERSON_AND_ORGANIZATION_ASSIGNMENT ( #299, #15, ( #265 ) ) ;
#131 = DIRECTION ( 'NONE',  ( 3.491481338843133355E-15, -1.224646799147353207E-16, 1.000000000000000000 ) ) ;
#132 = VERTEX_POINT ( 'NONE', #153 ) ;
#133 = CARTESIAN_POINT ( 'NONE',  ( 1.316288464743861212E-13, -4.616918432785521081E-15, 37.69999999999999574 ) ) ;
#134 = APPROVAL ( #204, 'UNSPECIFIED' ) ;
#135 = CC_DESIGN_APPROVAL ( #134, ( #298 ) ) ;
#136 = EDGE_LOOP ( 'NONE', ( #279 ) ) ;
#137 = APPROVAL_ROLE ( '' ) ;
#138 = EDGE_LOOP ( 'NONE', ( #162 ) ) ;
#139 = APPROVAL_ROLE ( '' ) ;
#140 = ORGANIZATION ( 'UNSPECIFIED', 'UNSPECIFIED', '' ) ;
#141 = EDGE_LOOP ( 'NONE', ( #272 ) ) ;
#142 = PERSON ( 'UNSPECIFIED', 'UNSPECIFIED', 'UNSPECIFIED', ('UNSPECIFIED'), ('UNSPECIFIED'), ('UNSPECIFIED') ) ;
#143 = EDGE_LOOP ( 'NONE', ( #40 ) ) ;
#144 = DIRECTION ( 'NONE',  ( 3.491481338843133355E-15, -1.224646799147353207E-16, 1.000000000000000000 ) ) ;
#145 = FACE_OUTER_BOUND ( 'NONE', #277, .T. ) ;
#146 = MANIFOLD_SOLID_BREP ( 'Corps-Déplacer/Copier1[2]', #52 ) ;
#147 = DIRECTION ( 'NONE',  ( 0.0000000000000000000, 1.000000000000000000, 0.0000000000000000000 ) ) ;
#148 = CARTESIAN_POINT ( 'NONE',  ( 2.134197053277487885E-14, -7.485755575918360694E-16, 6.112583302491979786 ) ) ;
#149 = AXIS2_PLACEMENT_3D ( 'NONE', #239, #196, #287 ) ;
#150 = EDGE_CURVE ( 'NONE', #178, #178, #27, .T. ) ;
#151 = CYLINDRICAL_SURFACE ( 'NONE', #149, 0.6349999999999995648 ) ;
#152 = LOCAL_TIME ( 11, 39, 53.00000000000000000, #293 ) ;
#153 = CARTESIAN_POINT ( 'NONE',  ( 4.538925740496073362E-14, 0.6349999999999984546, 13.00000000000000000 ) ) ;
#154 = MANIFOLD_SOLID_BREP ( 'Corps-Déplacer/Copier1[1]', #42 ) ;
#155 =( NAMED_UNIT ( * ) SI_UNIT ( $, .STERADIAN. ) SOLID_ANGLE_UNIT ( ) );
#156 = AXIS2_PLACEMENT_3D ( 'NONE', #252, #20, #98 ) ;
#157 = CARTESIAN_POINT ( 'NONE',  ( 2.134197053277487885E-14, 0.6349999999999984546, 6.112583302491979786 ) ) ;
#158 = PLANE ( 'NONE',  #19 ) ;
#159 = CALENDAR_DATE ( 2021, 1, 12 ) ;
#160 = ORIENTED_EDGE ( 'NONE', *, *, #73, .F. ) ;
#161 = TOROIDAL_SURFACE ( 'NONE', #156, 2.635000000000000231, 2.000000000000000000 ) ;
#162 = ORIENTED_EDGE ( 'NONE', *, *, #180, .T. ) ;
#163 = APPROVAL_DATE_TIME ( #273, #207 ) ;
#164 = FACE_OUTER_BOUND ( 'NONE', #232, .T. ) ;
#165 = ADVANCED_FACE ( 'NONE', ( #2, #282 ), #69, .T. ) ;
#166 = FACE_BOUND ( 'NONE', #45, .T. ) ;
#167 = CIRCLE ( 'NONE', #241, 0.6999999999999999556 ) ;
#168 = FACE_OUTER_BOUND ( 'NONE', #16, .T. ) ;
#169 = DIRECTION ( 'NONE',  ( -3.491481338843133355E-15, 1.224646799147353207E-16, -1.000000000000000000 ) ) ;
#170 = DIRECTION ( 'NONE',  ( 3.491481338843133355E-15, -1.224646799147353207E-16, 1.000000000000000000 ) ) ;
#171 = PLANE ( 'NONE',  #129 ) ;
#172 = APPROVAL_PERSON_ORGANIZATION ( #205, #134, #139 ) ;
#173 = DIRECTION ( 'NONE',  ( -3.491481338843133355E-15, 1.224646799147353207E-16, -1.000000000000000000 ) ) ;
#174 = CARTESIAN_POINT ( 'NONE',  ( 2.094888803305880013E-14, 5.249159239316490680E-33, 6.000000000000000000 ) ) ;
#175 = CIRCLE ( 'NONE', #48, 0.6999999999999992895 ) ;
#176 = EDGE_CURVE ( 'NONE', #132, #132, #285, .T. ) ;
#177 = FACE_OUTER_BOUND ( 'NONE', #143, .T. ) ;
#178 = VERTEX_POINT ( 'NONE', #6 ) ;
#179 = PRODUCT_DEFINITION_FORMATION_WITH_SPECIFIED_SOURCE ( 'ANY', '', #301, .NOT_KNOWN. ) ;
#180 = EDGE_CURVE ( 'NONE', #243, #243, #225, .T. ) ;
#181 = COORDINATED_UNIVERSAL_TIME_OFFSET ( 1, 0, .AHEAD. ) ;
#182 = ORIENTED_EDGE ( 'NONE', *, *, #229, .F. ) ;
#183 = PERSON_AND_ORGANIZATION_ROLE ( 'design_owner' ) ;
#184 = ORIENTED_EDGE ( 'NONE', *, *, #278, .T. ) ;
#185 = PERSON_AND_ORGANIZATION_ROLE ( 'creator' ) ;
#186 = APPROVAL ( #227, 'UNSPECIFIED' ) ;
#187 = PERSON_AND_ORGANIZATION_ROLE ( 'design_supplier' ) ;
#188 = ORIENTED_EDGE ( 'NONE', *, *, #89, .F. ) ;
#189 = ADVANCED_FACE ( 'NONE', ( #74, #124 ), #249, .T. ) ;
#190 = CIRCLE ( 'NONE', #101, 1.499999999999997558 ) ;
#191 = DIRECTION ( 'NONE',  ( 0.0000000000000000000, 1.000000000000000000, 0.0000000000000000000 ) ) ;
#192 = DIRECTION ( 'NONE',  ( 4.275831445896958607E-31, 1.000000000000000000, 1.224646799147353207E-16 ) ) ;
#193 = DIRECTION ( 'NONE',  ( 0.0000000000000000000, 1.000000000000000000, 0.0000000000000000000 ) ) ;
#194 = CC_DESIGN_APPROVAL ( #207, ( #265 ) ) ;
#195 = DIRECTION ( 'NONE',  ( 0.0000000000000000000, 1.000000000000000000, 0.0000000000000000000 ) ) ;
#196 = DIRECTION ( 'NONE',  ( -3.491481338843133355E-15, 1.224646799147353207E-16, -1.000000000000000000 ) ) ;
#197 = DIRECTION ( 'NONE',  ( 0.0000000000000000000, 1.000000000000000000, 0.0000000000000000000 ) ) ;
#198 = EDGE_CURVE ( 'NONE', #58, #58, #116, .T. ) ;
#199 = VERTEX_POINT ( 'NONE', #33 ) ;
#200 =( NAMED_UNIT ( * ) PLANE_ANGLE_UNIT ( ) SI_UNIT ( $, .RADIAN. ) );
#201 = MECHANICAL_CONTEXT ( 'NONE', #261, 'mechanical' ) ;
#202 = ADVANCED_FACE ( 'NONE', ( #145 ), #303, .T. ) ;
#203 = AXIS2_PLACEMENT_3D ( 'NONE', #217, #214, #192 ) ;
#204 = APPROVAL_STATUS ( 'not_yet_approved' ) ;
#205 = PERSON_AND_ORGANIZATION ( #142, #140 ) ;
#206 = ORIENTED_EDGE ( 'NONE', *, *, #198, .F. ) ;
#207 = APPROVAL ( #61, 'UNSPECIFIED' ) ;
#208 = ORIENTED_EDGE ( 'NONE', *, *, #150, .F. ) ;
#209 = COORDINATED_UNIVERSAL_TIME_OFFSET ( 1, 0, .AHEAD. ) ;
#210 = ORIENTED_EDGE ( 'NONE', *, *, #278, .F. ) ;
#211 = ORIENTED_EDGE ( 'NONE', *, *, #121, .F. ) ;
#212 = DIRECTION ( 'NONE',  ( 4.275831445896958607E-31, 1.000000000000000000, 1.224646799147353207E-16 ) ) ;
#213 = FACE_OUTER_BOUND ( 'NONE', #36, .T. ) ;
#214 = DIRECTION ( 'NONE',  ( -3.491481338843133355E-15, 1.224646799147353207E-16, -1.000000000000000000 ) ) ;
#215 = FACE_OUTER_BOUND ( 'NONE', #66, .T. ) ;
#216 = AXIS2_PLACEMENT_3D ( 'NONE', #122, #126, #147 ) ;
#217 = CARTESIAN_POINT ( 'NONE',  ( 0.0000000000000000000, 0.0000000000000000000, 0.0000000000000000000 ) ) ;
#218 = CARTESIAN_POINT ( 'NONE',  ( -2.134327364718259434E-31, 7.486212646924462110E-33, -6.112956529292082852E-17 ) ) ;
#219 = CARTESIAN_POINT ( 'NONE',  ( 2.094888803305880013E-14, -7.347880794884119736E-16, 6.000000000000000000 ) ) ;
#220 = CIRCLE ( 'NONE', #82, 1.500000000000003331 ) ;
#221 = DIRECTION ( 'NONE',  ( -3.491481338843133355E-15, 1.224646799147353207E-16, -1.000000000000000000 ) ) ;
#222 = VERTEX_POINT ( 'NONE', #29 ) ;
#223 = CC_DESIGN_DATE_AND_TIME_ASSIGNMENT ( #113, #254, ( #298 ) ) ;
#224 = APPROVAL_PERSON_ORGANIZATION ( #110, #207, #37 ) ;
#225 = CIRCLE ( 'NONE', #269, 1.200000000000003286 ) ;
#226 = UNCERTAINTY_MEASURE_WITH_UNIT (LENGTH_MEASURE( 1.000000000000000082E-05 ), #291, 'distance_accuracy_value', 'NONE');
#227 = APPROVAL_STATUS ( 'not_yet_approved' ) ;
#228 = EDGE_LOOP ( 'NONE', ( #248 ) ) ;
#229 = EDGE_CURVE ( 'NONE', #107, #107, #220, .T. ) ;
#230 = PERSON_AND_ORGANIZATION ( #142, #140 ) ;
#231 = ORIENTED_EDGE ( 'NONE', *, *, #176, .T. ) ;
#232 = EDGE_LOOP ( 'NONE', ( #21 ) ) ;
#233 = CONICAL_SURFACE ( 'NONE', #216, 0.6349999999999991207, 0.5235987755982941527 ) ;
#234 = EDGE_LOOP ( 'NONE', ( #184 ) ) ;
#235 = EDGE_CURVE ( 'NONE', #105, #105, #109, .T. ) ;
#236 = DIRECTION ( 'NONE',  ( -5.502656983963536639E-31, -1.000000000000000000, -1.548860246407865062E-16 ) ) ;
#237 = LOCAL_TIME ( 11, 39, 53.00000000000000000, #247 ) ;
#238 = DIRECTION ( 'NONE',  ( -4.275831445896958607E-31, -1.000000000000000000, -1.224646799147353207E-16 ) ) ;
#239 = CARTESIAN_POINT ( 'NONE',  ( 0.0000000000000000000, 0.0000000000000000000, 0.0000000000000000000 ) ) ;
#240 = CARTESIAN_POINT ( 'NONE',  ( 1.326762908760390423E-13, -4.653657836759941941E-15, 38.00000000000000000 ) ) ;
#241 = AXIS2_PLACEMENT_3D ( 'NONE', #51, #1, #284 ) ;
#242 = DIRECTION ( 'NONE',  ( -3.491481338843133355E-15, 1.224646799147353207E-16, -1.000000000000000000 ) ) ;
#243 = VERTEX_POINT ( 'NONE', #54 ) ;
#244 = CARTESIAN_POINT ( 'NONE',  ( 0.0000000000000000000, 0.0000000000000000000, 0.0000000000000000000 ) ) ;
#245 = AXIS2_PLACEMENT_3D ( 'NONE', #148, #47, #193 ) ;
#246 = VERTEX_POINT ( 'NONE', #157 ) ;
#247 = COORDINATED_UNIVERSAL_TIME_OFFSET ( 1, 0, .AHEAD. ) ;
#248 = ORIENTED_EDGE ( 'NONE', *, *, #198, .T. ) ;
#249 = CONICAL_SURFACE ( 'NONE', #72, 0.6999999999999992895, 0.5235987755982925984 ) ;
#250 = FACE_OUTER_BOUND ( 'NONE', #136, .T. ) ;
#251 = SHAPE_DEFINITION_REPRESENTATION ( #64, #262 ) ;
#252 = CARTESIAN_POINT ( 'NONE',  ( 4.538925740496073362E-14, -1.734723475976807094E-15, 13.00000000000000000 ) ) ;
#253 = AXIS2_PLACEMENT_3D ( 'NONE', #100, #28, #195 ) ;
#254 = DATE_TIME_ROLE ( 'creation_date' ) ;
#255 = CARTESIAN_POINT ( 'NONE',  ( 4.660183614865709118E-14, -1.634572375883072808E-15, 13.34729635533384595 ) ) ;
#256 = CYLINDRICAL_SURFACE ( 'NONE', #203, 0.6999999999999996225 ) ;
#257 = ADVANCED_FACE ( 'NONE', ( #104 ), #158, .F. ) ;
#258 = AXIS2_PLACEMENT_3D ( 'NONE', #244, #83, #31 ) ;
#259 = FACE_OUTER_BOUND ( 'NONE', #112, .T. ) ;
#260 = CARTESIAN_POINT ( 'NONE',  ( 4.538925740496073362E-14, -1.592040838891559095E-15, 13.00000000000000000 ) ) ;
#261 = APPLICATION_CONTEXT ( 'configuration controlled 3d designs of mechanical parts and assemblies' ) ;
#262 = ADVANCED_BREP_SHAPE_REPRESENTATION ( '200735', ( #154, #146, #258 ), #97 ) ;
#263 = DIRECTION ( 'NONE',  ( 5.502656983963536639E-31, 1.000000000000000000, 1.548860246407865062E-16 ) ) ;
#264 = DIRECTION ( 'NONE',  ( 0.0000000000000000000, 1.000000000000000000, 0.0000000000000000000 ) ) ;
#265 = SECURITY_CLASSIFICATION ( '', '', #43 ) ;
#266 = DIRECTION ( 'NONE',  ( -4.275831445896958607E-31, -1.000000000000000000, -1.224646799147353207E-16 ) ) ;
#267 = APPLICATION_CONTEXT ( 'configuration controlled 3d designs of mechanical parts and assemblies' ) ;
#268 = CARTESIAN_POINT ( 'NONE',  ( 2.094888803305880013E-14, 0.6999999999999992895, 6.000000000000000000 ) ) ;
#269 = AXIS2_PLACEMENT_3D ( 'NONE', #240, #26, #191 ) ;
#270 = PERSON_AND_ORGANIZATION ( #142, #140 ) ;
#271 = PERSON_AND_ORGANIZATION ( #142, #140 ) ;
#272 = ORIENTED_EDGE ( 'NONE', *, *, #89, .T. ) ;
#273 = DATE_AND_TIME ( #159, #237 ) ;
#274 = CARTESIAN_POINT ( 'NONE',  ( 0.0000000000000000000, 0.0000000000000000000, 0.0000000000000000000 ) ) ;
#275 = DATE_AND_TIME ( #39, #152 ) ;
#276 = PERSON_AND_ORGANIZATION ( #142, #140 ) ;
#277 = EDGE_LOOP ( 'NONE', ( #211 ) ) ;
#278 = EDGE_CURVE ( 'NONE', #199, #199, #190, .T. ) ;
#279 = ORIENTED_EDGE ( 'NONE', *, *, #150, .T. ) ;
#280 = AXIS2_PLACEMENT_3D ( 'NONE', #286, #24, #76 ) ;
#281 = APPROVAL_PERSON_ORGANIZATION ( #115, #186, #137 ) ;
#282 = FACE_BOUND ( 'NONE', #138, .T. ) ;
#283 = DIRECTION ( 'NONE',  ( 0.0000000000000000000, 1.000000000000000000, 0.0000000000000000000 ) ) ;
#284 = DIRECTION ( 'NONE',  ( 0.0000000000000000000, 1.000000000000000000, 0.0000000000000000000 ) ) ;
#285 = CIRCLE ( 'NONE', #125, 0.6350000000000000089 ) ;
#286 = CARTESIAN_POINT ( 'NONE',  ( 6.312820354112950673E-14, -2.214239312766387668E-15, 18.08063610102134788 ) ) ;
#287 = DIRECTION ( 'NONE',  ( 4.275831445896958607E-31, 1.000000000000000000, 1.224646799147353207E-16 ) ) ;
#288 = ADVANCED_FACE ( 'NONE', ( #177 ), #10, .F. ) ;
#289 = DIRECTION ( 'NONE',  ( -3.491481338843133355E-15, 1.224646799147353207E-16, -1.000000000000000000 ) ) ;
#290 = AXIS2_PLACEMENT_3D ( 'NONE', #22, #119, #212 ) ;
#291 =( LENGTH_UNIT ( ) NAMED_UNIT ( * ) SI_UNIT ( .MILLI., .METRE. ) );
#292 = CC_DESIGN_DATE_AND_TIME_ASSIGNMENT ( #70, #67, ( #265 ) ) ;
#293 = COORDINATED_UNIVERSAL_TIME_OFFSET ( 1, 0, .AHEAD. ) ;
#294 = CALENDAR_DATE ( 2021, 1, 12 ) ;
#295 = FACE_OUTER_BOUND ( 'NONE', #41, .T. ) ;
#296 = CALENDAR_DATE ( 2021, 1, 12 ) ;
#297 = EDGE_LOOP ( 'NONE', ( #118 ) ) ;
#298 = PRODUCT_DEFINITION ( 'UNKNOWN', '', #179, #87 ) ;
#299 = PERSON_AND_ORGANIZATION ( #142, #140 ) ;
#300 = DIRECTION ( 'NONE',  ( -3.491481338843133355E-15, 1.224646799147353207E-16, -1.000000000000000000 ) ) ;
#301 = PRODUCT ( '200735', '200735', '', ( #201 ) ) ;
#302 = LOCAL_TIME ( 11, 39, 53.00000000000000000, #181 ) ;
#303 = PLANE ( 'NONE',  #55 ) ;
ENDSEC;
END-ISO-10303-21;
