ISO-10303-21;
HEADER;
FILE_DESCRIPTION (( 'STEP AP203' ),
    '1' );
FILE_NAME ('200734.step',
    '2021-12-01T10:39:52',
    ( '' ),
    ( '' ),
    'SwSTEP 2.0',
    'SolidWorks 2019',
    '' );
FILE_SCHEMA (( 'CONFIG_CONTROL_DESIGN' ));
ENDSEC;

DATA;
#1 = PRODUCT ( '200734', '200734', '', ( #68 ) ) ;
#2 = CC_DESIGN_PERSON_AND_ORGANIZATION_ASSIGNMENT ( #99, #281, ( #190 ) ) ;
#3 = COORDINATED_UNIVERSAL_TIME_OFFSET ( 1, 0, .AHEAD. ) ;
#4 = CIRCLE ( 'NONE', #127, 1.500000000000003331 ) ;
#5 = ORIENTED_EDGE ( 'NONE', *, *, #173, .F. ) ;
#6 = MANIFOLD_SOLID_BREP ( 'Corps-Déplacer/Copier1[2]', #277 ) ;
#7 = EDGE_LOOP ( 'NONE', ( #143 ) ) ;
#8 = ADVANCED_FACE ( 'NONE', ( #233, #210 ), #261, .F. ) ;
#9 = CARTESIAN_POINT ( 'NONE',  ( 4.538925740496073362E-14, -1.592040838891559095E-15, 13.00000000000000000 ) ) ;
#10 = FACE_OUTER_BOUND ( 'NONE', #7, .T. ) ;
#11 = PLANE ( 'NONE',  #254 ) ;
#12 = FACE_OUTER_BOUND ( 'NONE', #164, .T. ) ;
#13 = FACE_OUTER_BOUND ( 'NONE', #167, .T. ) ;
#14 = FACE_OUTER_BOUND ( 'NONE', #285, .T. ) ;
#15 =( NAMED_UNIT ( * ) SI_UNIT ( $, .STERADIAN. ) SOLID_ANGLE_UNIT ( ) );
#16 = AXIS2_PLACEMENT_3D ( 'NONE', #59, #52, #57 ) ;
#17 = PRODUCT_DEFINITION_FORMATION_WITH_SPECIFIED_SOURCE ( 'ANY', '', #1, .NOT_KNOWN. ) ;
#18 = DIRECTION ( 'NONE',  ( 0.0000000000000000000, -1.000000000000000000, 0.0000000000000000000 ) ) ;
#19 = DIRECTION ( 'NONE',  ( 3.491481338843133355E-15, -1.224646799147353207E-16, 1.000000000000000000 ) ) ;
#20 = AXIS2_PLACEMENT_3D ( 'NONE', #35, #147, #263 ) ;
#21 = COORDINATED_UNIVERSAL_TIME_OFFSET ( 1, 0, .AHEAD. ) ;
#22 = EDGE_LOOP ( 'NONE', ( #234 ) ) ;
#23 = LOCAL_TIME ( 11, 39, 52.00000000000000000, #94 ) ;
#24 = ADVANCED_BREP_SHAPE_REPRESENTATION ( '200734', ( #106, #6, #296 ), #116 ) ;
#25 = SHAPE_DEFINITION_REPRESENTATION ( #88, #24 ) ;
#26 = PERSON_AND_ORGANIZATION ( #125, #176 ) ;
#27 = EDGE_LOOP ( 'NONE', ( #5 ) ) ;
#28 = APPLICATION_CONTEXT ( 'configuration controlled 3d designs of mechanical parts and assemblies' ) ;
#29 = CYLINDRICAL_SURFACE ( 'NONE', #20, 0.6749999999999998224 ) ;
#30 = DIRECTION ( 'NONE',  ( -3.491481338843133355E-15, 1.224646799147353207E-16, -1.000000000000000000 ) ) ;
#31 = AXIS2_PLACEMENT_3D ( 'NONE', #79, #129, #126 ) ;
#32 = ADVANCED_FACE ( 'NONE', ( #13, #294 ), #29, .T. ) ;
#33 = DIRECTION ( 'NONE',  ( 0.0000000000000000000, 1.000000000000000000, 0.0000000000000000000 ) ) ;
#34 = DIRECTION ( 'NONE',  ( 3.491481338843133355E-15, -1.224646799147353207E-16, 1.000000000000000000 ) ) ;
#35 = CARTESIAN_POINT ( 'NONE',  ( 0.0000000000000000000, 0.0000000000000000000, 0.0000000000000000000 ) ) ;
#36 = CARTESIAN_POINT ( 'NONE',  ( 2.125125918668655372E-14, 0.6249999999999987788, 6.086602540378446058 ) ) ;
#37 = CC_DESIGN_DATE_AND_TIME_ASSIGNMENT ( #283, #213, ( #251 ) ) ;
#38 = VERTEX_POINT ( 'NONE', #111 ) ;
#39 = VERTEX_POINT ( 'NONE', #181 ) ;
#40 = EDGE_CURVE ( 'NONE', #38, #38, #286, .T. ) ;
#41 = APPROVAL_PERSON_ORGANIZATION ( #91, #130, #253 ) ;
#42 = APPLICATION_PROTOCOL_DEFINITION ( 'international standard', 'config_control_design', 1994, #28 ) ;
#43 = FACE_BOUND ( 'NONE', #255, .T. ) ;
#44 = PERSON_AND_ORGANIZATION ( #125, #176 ) ;
#45 = AXIS2_PLACEMENT_3D ( 'NONE', #175, #290, #177 ) ;
#46 = DIRECTION ( 'NONE',  ( 1.000000000000000000, 0.0000000000000000000, 0.0000000000000000000 ) ) ;
#47 = ORIENTED_EDGE ( 'NONE', *, *, #97, .F. ) ;
#48 = LOCAL_TIME ( 11, 39, 52.00000000000000000, #3 ) ;
#49 = APPROVAL_STATUS ( 'not_yet_approved' ) ;
#50 = COORDINATED_UNIVERSAL_TIME_OFFSET ( 1, 0, .AHEAD. ) ;
#51 = EDGE_CURVE ( 'NONE', #39, #39, #90, .T. ) ;
#52 = DIRECTION ( 'NONE',  ( -3.491481338843133355E-15, 1.224646799147353207E-16, -1.000000000000000000 ) ) ;
#53 = ADVANCED_FACE ( 'NONE', ( #104, #10 ), #268, .T. ) ;
#54 = CIRCLE ( 'NONE', #249, 0.6249999999999995559 ) ;
#55 = DIRECTION ( 'NONE',  ( 4.275831445896958607E-31, 1.000000000000000000, 1.224646799147353207E-16 ) ) ;
#56 = CONICAL_SURFACE ( 'NONE', #227, 0.6749999999999993783, 0.5235987755982928205 ) ;
#57 = DIRECTION ( 'NONE',  ( 0.0000000000000000000, 1.000000000000000000, 0.0000000000000000000 ) ) ;
#58 = UNCERTAINTY_MEASURE_WITH_UNIT (LENGTH_MEASURE( 1.000000000000000082E-05 ), #180, 'distance_accuracy_value', 'NONE');
#59 = CARTESIAN_POINT ( 'NONE',  ( 2.094888803305880013E-14, -7.347880794884119736E-16, 6.000000000000000000 ) ) ;
#60 = CC_DESIGN_PERSON_AND_ORGANIZATION_ASSIGNMENT ( #185, #184, ( #17 ) ) ;
#61 = CARTESIAN_POINT ( 'NONE',  ( 9.463679131915808972E-32, 0.5306624327025949439, 2.710505431213761085E-17 ) ) ;
#62 = AXIS2_PLACEMENT_3D ( 'NONE', #228, #161, #229 ) ;
#63 = FACE_OUTER_BOUND ( 'NONE', #211, .T. ) ;
#64 = CARTESIAN_POINT ( 'NONE',  ( 2.094888803305880013E-14, 0.6749999999999993783, 6.000000000000000000 ) ) ;
#65 = AXIS2_PLACEMENT_3D ( 'NONE', #197, #239, #55 ) ;
#66 = LOCAL_TIME ( 11, 39, 52.00000000000000000, #21 ) ;
#67 = VERTEX_POINT ( 'NONE', #301 ) ;
#68 = MECHANICAL_CONTEXT ( 'NONE', #28, 'mechanical' ) ;
#69 = DATE_AND_TIME ( #123, #48 ) ;
#70 = APPROVAL_DATE_TIME ( #140, #130 ) ;
#71 = PERSON_AND_ORGANIZATION_ROLE ( 'creator' ) ;
#72 = ORIENTED_EDGE ( 'NONE', *, *, #109, .T. ) ;
#73 = DATE_TIME_ROLE ( 'classification_date' ) ;
#74 = EDGE_LOOP ( 'NONE', ( #118 ) ) ;
#75 = APPLICATION_CONTEXT ( 'configuration controlled 3d designs of mechanical parts and assemblies' ) ;
#76 = ORIENTED_EDGE ( 'NONE', *, *, #202, .F. ) ;
#77 = DIRECTION ( 'NONE',  ( -3.491481338843133355E-15, 1.224646799147353207E-16, -1.000000000000000000 ) ) ;
#78 = DIRECTION ( 'NONE',  ( 2.853229547240352120E-31, 1.000000000000000000, 1.606225440719267353E-16 ) ) ;
#79 = CARTESIAN_POINT ( 'NONE',  ( -1.322655203714353591E-31, 4.639249946961116304E-33, -3.788235065156045441E-17 ) ) ;
#80 = AXIS2_PLACEMENT_3D ( 'NONE', #237, #217, #83 ) ;
#81 = DIRECTION ( 'NONE',  ( 0.0000000000000000000, 1.000000000000000000, 0.0000000000000000000 ) ) ;
#82 = EDGE_CURVE ( 'NONE', #67, #67, #110, .T. ) ;
#83 = DIRECTION ( 'NONE',  ( -4.275831445896958607E-31, -1.000000000000000000, -1.224646799147353207E-16 ) ) ;
#84 =( NAMED_UNIT ( * ) PLANE_ANGLE_UNIT ( ) SI_UNIT ( $, .RADIAN. ) );
#85 = AXIS2_PLACEMENT_3D ( 'NONE', #248, #299, #18 ) ;
#86 = CC_DESIGN_PERSON_AND_ORGANIZATION_ASSIGNMENT ( #44, #162, ( #1 ) ) ;
#87 = VERTEX_POINT ( 'NONE', #159 ) ;
#88 = PRODUCT_DEFINITION_SHAPE ( 'NONE', 'NONE',  #251 ) ;
#89 = CARTESIAN_POINT ( 'NONE',  ( 0.0000000000000000000, 0.0000000000000000000, 0.0000000000000000000 ) ) ;
#90 = CIRCLE ( 'NONE', #292, 0.6749999999999993783 ) ;
#91 = PERSON_AND_ORGANIZATION ( #125, #176 ) ;
#92 = ADVANCED_FACE ( 'NONE', ( #12 ), #201, .T. ) ;
#93 = EDGE_LOOP ( 'NONE', ( #209 ) ) ;
#94 = COORDINATED_UNIVERSAL_TIME_OFFSET ( 1, 0, .AHEAD. ) ;
#95 = ORIENTED_EDGE ( 'NONE', *, *, #51, .T. ) ;
#96 = PERSON_AND_ORGANIZATION ( #125, #176 ) ;
#97 = EDGE_CURVE ( 'NONE', #179, #179, #231, .T. ) ;
#98 = EDGE_LOOP ( 'NONE', ( #194 ) ) ;
#99 = PERSON_AND_ORGANIZATION ( #125, #176 ) ;
#100 = EDGE_LOOP ( 'NONE', ( #119 ) ) ;
#101 = PLANE ( 'NONE',  #165 ) ;
#102 = DIRECTION ( 'NONE',  ( 3.491481338843133355E-15, -1.224646799147353207E-16, 1.000000000000000000 ) ) ;
#103 = CARTESIAN_POINT ( 'NONE',  ( 2.125125918668655372E-14, -7.453938318756612326E-16, 6.086602540378446058 ) ) ;
#104 = FACE_OUTER_BOUND ( 'NONE', #27, .T. ) ;
#105 = APPROVAL_PERSON_ORGANIZATION ( #192, #232, #260 ) ;
#106 = MANIFOLD_SOLID_BREP ( 'Corps-Déplacer/Copier1[1]', #120 ) ;
#107 = DIRECTION ( 'NONE',  ( 0.0000000000000000000, 1.000000000000000000, 0.0000000000000000000 ) ) ;
#108 = VERTEX_POINT ( 'NONE', #226 ) ;
#109 = EDGE_CURVE ( 'NONE', #270, #270, #188, .T. ) ;
#110 = CIRCLE ( 'NONE', #112, 0.6250000000000004441 ) ;
#111 = CARTESIAN_POINT ( 'NONE',  ( 1.326762908760390423E-13, 1.199999999999998845, 38.00000000000000000 ) ) ;
#112 = AXIS2_PLACEMENT_3D ( 'NONE', #9, #223, #107 ) ;
#113 = FACE_BOUND ( 'NONE', #145, .T. ) ;
#114 = CARTESIAN_POINT ( 'NONE',  ( 1.316288464743861212E-13, -4.616918432785521081E-15, 37.69999999999999574 ) ) ;
#115 = ADVANCED_FACE ( 'NONE', ( #152 ), #242, .F. ) ;
#116 =( GEOMETRIC_REPRESENTATION_CONTEXT ( 3 ) GLOBAL_UNCERTAINTY_ASSIGNED_CONTEXT ( ( #58 ) ) GLOBAL_UNIT_ASSIGNED_CONTEXT ( ( #180, #84, #15 ) ) REPRESENTATION_CONTEXT ( 'NONE', 'WORKASPACE' ) );
#117 = DATE_AND_TIME ( #230, #66 ) ;
#118 = ORIENTED_EDGE ( 'NONE', *, *, #151, .F. ) ;
#119 = ORIENTED_EDGE ( 'NONE', *, *, #40, .T. ) ;
#120 = CLOSED_SHELL ( 'NONE', ( #154, #247, #207, #8, #258, #53, #238, #141 ) ) ;
#121 = CARTESIAN_POINT ( 'NONE',  ( 0.0000000000000000000, 0.0000000000000000000, 0.0000000000000000000 ) ) ;
#122 = ORIENTED_EDGE ( 'NONE', *, *, #173, .T. ) ;
#123 = CALENDAR_DATE ( 2021, 1, 12 ) ;
#124 = EDGE_LOOP ( 'NONE', ( #142 ) ) ;
#125 = PERSON ( 'UNSPECIFIED', 'UNSPECIFIED', 'UNSPECIFIED', ('UNSPECIFIED'), ('UNSPECIFIED'), ('UNSPECIFIED') ) ;
#126 = DIRECTION ( 'NONE',  ( 4.275831445896959482E-31, 1.000000000000000000, 1.224646799147353207E-16 ) ) ;
#127 = AXIS2_PLACEMENT_3D ( 'NONE', #114, #246, #274 ) ;
#128 = DIRECTION ( 'NONE',  ( -4.275831445896958607E-31, -1.000000000000000000, -1.224646799147353207E-16 ) ) ;
#129 = DIRECTION ( 'NONE',  ( -3.491481338843133355E-15, 1.224646799147353207E-16, -1.000000000000000000 ) ) ;
#130 = APPROVAL ( #168, 'UNSPECIFIED' ) ;
#131 = DIRECTION ( 'NONE',  ( 4.275831445896958607E-31, 1.000000000000000000, 1.224646799147353207E-16 ) ) ;
#132 = CARTESIAN_POINT ( 'NONE',  ( 8.728703347107829444E-16, -3.061616997868381785E-17, 0.2499999999999998890 ) ) ;
#133 = AXIS2_PLACEMENT_3D ( 'NONE', #269, #241, #33 ) ;
#134 = CARTESIAN_POINT ( 'NONE',  ( 2.094888803305880013E-14, 0.6749999999999993783, 6.000000000000000000 ) ) ;
#135 = VERTEX_POINT ( 'NONE', #136 ) ;
#136 = CARTESIAN_POINT ( 'NONE',  ( 6.332621528753463753E-14, 1.499999999999995559, 18.13734891921751924 ) ) ;
#137 = CONICAL_SURFACE ( 'NONE', #85, 1.499999999999997558, 0.1745329251994261477 ) ;
#138 = DIRECTION ( 'NONE',  ( 0.0000000000000000000, 1.000000000000000000, 0.0000000000000000000 ) ) ;
#139 = FACE_OUTER_BOUND ( 'NONE', #124, .T. ) ;
#140 = DATE_AND_TIME ( #235, #212 ) ;
#141 = ADVANCED_FACE ( 'NONE', ( #199 ), #101, .F. ) ;
#142 = ORIENTED_EDGE ( 'NONE', *, *, #262, .F. ) ;
#143 = ORIENTED_EDGE ( 'NONE', *, *, #262, .T. ) ;
#144 = DIRECTION ( 'NONE',  ( 0.0000000000000000000, 0.0000000000000000000, 1.000000000000000000 ) ) ;
#145 = EDGE_LOOP ( 'NONE', ( #76 ) ) ;
#146 = EDGE_CURVE ( 'NONE', #272, #272, #54, .T. ) ;
#147 = DIRECTION ( 'NONE',  ( -3.491481338843133355E-15, 1.224646799147353207E-16, -1.000000000000000000 ) ) ;
#148 = DIRECTION ( 'NONE',  ( -3.491481338843133355E-15, 1.224646799147353207E-16, -1.000000000000000000 ) ) ;
#149 = CARTESIAN_POINT ( 'NONE',  ( 2.094888803305880013E-14, 5.061689266483759163E-33, 6.000000000000000000 ) ) ;
#150 = LOCAL_TIME ( 11, 39, 52.00000000000000000, #187 ) ;
#151 = EDGE_CURVE ( 'NONE', #157, #157, #203, .T. ) ;
#152 = FACE_OUTER_BOUND ( 'NONE', #193, .T. ) ;
#153 = DIRECTION ( 'NONE',  ( -3.491481338843133355E-15, 1.224646799147353207E-16, -1.000000000000000000 ) ) ;
#154 = ADVANCED_FACE ( 'NONE', ( #243 ), #11, .F. ) ;
#155 = CARTESIAN_POINT ( 'NONE',  ( 2.125125918668655372E-14, -7.453938318756612326E-16, 6.086602540378446058 ) ) ;
#156 = CC_DESIGN_APPROVAL ( #287, ( #17 ) ) ;
#157 = VERTEX_POINT ( 'NONE', #134 ) ;
#158 = DIRECTION ( 'NONE',  ( -2.853229547240352120E-31, -1.000000000000000000, -1.606225440719267353E-16 ) ) ;
#159 = CARTESIAN_POINT ( 'NONE',  ( 1.316288464743861212E-13, 1.499999999999998668, 37.69999999999999574 ) ) ;
#160 = CIRCLE ( 'NONE', #280, 1.499999999999997558 ) ;
#161 = DIRECTION ( 'NONE',  ( -3.491481338843133355E-15, 1.224646799147353207E-16, -1.000000000000000000 ) ) ;
#162 = PERSON_AND_ORGANIZATION_ROLE ( 'design_owner' ) ;
#163 = APPLICATION_PROTOCOL_DEFINITION ( 'international standard', 'config_control_design', 1994, #75 ) ;
#164 = EDGE_LOOP ( 'NONE', ( #47 ) ) ;
#165 = AXIS2_PLACEMENT_3D ( 'NONE', #196, #30, #131 ) ;
#166 = APPROVAL_ROLE ( '' ) ;
#167 = EDGE_LOOP ( 'NONE', ( #259 ) ) ;
#168 = APPROVAL_STATUS ( 'not_yet_approved' ) ;
#169 = ORIENTED_EDGE ( 'NONE', *, *, #146, .T. ) ;
#170 = PERSON_AND_ORGANIZATION_ROLE ( 'creator' ) ;
#171 = EDGE_LOOP ( 'NONE', ( #95 ) ) ;
#172 = AXIS2_PLACEMENT_3D ( 'NONE', #89, #224, #273 ) ;
#173 = EDGE_CURVE ( 'NONE', #135, #135, #160, .T. ) ;
#174 = DIRECTION ( 'NONE',  ( 0.0000000000000000000, 1.000000000000000000, 0.0000000000000000000 ) ) ;
#175 = CARTESIAN_POINT ( 'NONE',  ( 4.660183614865709118E-14, -1.634572375883072808E-15, 13.34729635533384595 ) ) ;
#176 = ORGANIZATION ( 'UNSPECIFIED', 'UNSPECIFIED', '' ) ;
#177 = DIRECTION ( 'NONE',  ( 0.0000000000000000000, 1.000000000000000000, 0.0000000000000000000 ) ) ;
#178 = CARTESIAN_POINT ( 'NONE',  ( 4.538925740496073362E-14, -1.734723475976807094E-15, 13.00000000000000000 ) ) ;
#179 = VERTEX_POINT ( 'NONE', #64 ) ;
#180 =( LENGTH_UNIT ( ) NAMED_UNIT ( * ) SI_UNIT ( .MILLI., .METRE. ) );
#181 = CARTESIAN_POINT ( 'NONE',  ( 8.728703347107831416E-16, 0.6749999999999993783, 0.2500000000000000000 ) ) ;
#182 = CC_DESIGN_PERSON_AND_ORGANIZATION_ASSIGNMENT ( #96, #170, ( #251 ) ) ;
#183 = FACE_BOUND ( 'NONE', #98, .T. ) ;
#184 = PERSON_AND_ORGANIZATION_ROLE ( 'design_supplier' ) ;
#185 = PERSON_AND_ORGANIZATION ( #125, #176 ) ;
#186 = ORIENTED_EDGE ( 'NONE', *, *, #151, .T. ) ;
#187 = COORDINATED_UNIVERSAL_TIME_OFFSET ( 1, 0, .AHEAD. ) ;
#188 = CIRCLE ( 'NONE', #31, 0.5306624327025949439 ) ;
#189 = APPROVAL_STATUS ( 'not_yet_approved' ) ;
#190 = SECURITY_CLASSIFICATION ( '', '', #278 ) ;
#191 = EDGE_LOOP ( 'NONE', ( #236 ) ) ;
#192 = PERSON_AND_ORGANIZATION ( #125, #176 ) ;
#193 = EDGE_LOOP ( 'NONE', ( #72 ) ) ;
#194 = ORIENTED_EDGE ( 'NONE', *, *, #109, .F. ) ;
#195 = CARTESIAN_POINT ( 'NONE',  ( 2.094888803305880013E-14, 5.061689266483759163E-33, 6.000000000000000000 ) ) ;
#196 = CARTESIAN_POINT ( 'NONE',  ( 1.326762908760390423E-13, 8.998558695971103225E-33, 38.00000000000000000 ) ) ;
#197 = CARTESIAN_POINT ( 'NONE',  ( 0.0000000000000000000, 0.0000000000000000000, 0.0000000000000000000 ) ) ;
#198 = CONICAL_SURFACE ( 'NONE', #222, 0.6249999999999995559, 0.5235987755982938197 ) ;
#199 = FACE_OUTER_BOUND ( 'NONE', #93, .T. ) ;
#200 = DESIGN_CONTEXT ( 'detailed design', #75, 'design' ) ;
#201 = PLANE ( 'NONE',  #240 ) ;
#202 = EDGE_CURVE ( 'NONE', #108, #108, #206, .T. ) ;
#203 = CIRCLE ( 'NONE', #271, 0.6750000000000001554 ) ;
#204 = CYLINDRICAL_SURFACE ( 'NONE', #172, 0.6250000000000000000 ) ;
#205 = DIRECTION ( 'NONE',  ( -3.491481338843133355E-15, 1.224646799147353207E-16, -1.000000000000000000 ) ) ;
#206 = CIRCLE ( 'NONE', #45, 0.6553844939755816279 ) ;
#207 = ADVANCED_FACE ( 'NONE', ( #265, #63 ), #204, .T. ) ;
#208 = CALENDAR_DATE ( 2021, 1, 12 ) ;
#209 = ORIENTED_EDGE ( 'NONE', *, *, #40, .F. ) ;
#210 = FACE_OUTER_BOUND ( 'NONE', #22, .T. ) ;
#211 = EDGE_LOOP ( 'NONE', ( #284 ) ) ;
#212 = LOCAL_TIME ( 11, 39, 52.00000000000000000, #50 ) ;
#213 = DATE_TIME_ROLE ( 'creation_date' ) ;
#214 = ORIENTED_EDGE ( 'NONE', *, *, #146, .F. ) ;
#215 = PERSON_AND_ORGANIZATION ( #125, #176 ) ;
#216 = EDGE_LOOP ( 'NONE', ( #214 ) ) ;
#217 = DIRECTION ( 'NONE',  ( 3.491481338843133355E-15, -1.224646799147353207E-16, 1.000000000000000000 ) ) ;
#218 = AXIS2_PLACEMENT_3D ( 'NONE', #178, #264, #219 ) ;
#219 = DIRECTION ( 'NONE',  ( 4.275831445896958607E-31, 1.000000000000000000, 1.224646799147353207E-16 ) ) ;
#220 = CARTESIAN_POINT ( 'NONE',  ( 2.094888803305880013E-14, -7.347880794884119736E-16, 6.000000000000000000 ) ) ;
#221 = DIRECTION ( 'NONE',  ( -3.491481338843133355E-15, 1.224646799147353207E-16, -1.000000000000000000 ) ) ;
#222 = AXIS2_PLACEMENT_3D ( 'NONE', #155, #205, #138 ) ;
#223 = DIRECTION ( 'NONE',  ( -3.491481338843133355E-15, 1.224646799147353207E-16, -1.000000000000000000 ) ) ;
#224 = DIRECTION ( 'NONE',  ( -3.491481338843133355E-15, 1.224646799147353207E-16, -1.000000000000000000 ) ) ;
#225 = ADVANCED_FACE ( 'NONE', ( #183, #244 ), #56, .T. ) ;
#226 = CARTESIAN_POINT ( 'NONE',  ( 4.660183614865709118E-14, 0.6553844939755799626, 13.34729635533384595 ) ) ;
#227 = AXIS2_PLACEMENT_3D ( 'NONE', #250, #19, #158 ) ;
#228 = CARTESIAN_POINT ( 'NONE',  ( 1.326762908760390423E-13, -4.653657836759941941E-15, 38.00000000000000000 ) ) ;
#229 = DIRECTION ( 'NONE',  ( 0.0000000000000000000, 1.000000000000000000, 0.0000000000000000000 ) ) ;
#230 = CALENDAR_DATE ( 2021, 1, 12 ) ;
#231 = CIRCLE ( 'NONE', #16, 0.6750000000000001554 ) ;
#232 = APPROVAL ( #49, 'UNSPECIFIED' ) ;
#233 = FACE_OUTER_BOUND ( 'NONE', #303, .T. ) ;
#234 = ORIENTED_EDGE ( 'NONE', *, *, #202, .T. ) ;
#235 = CALENDAR_DATE ( 2021, 1, 12 ) ;
#236 = ORIENTED_EDGE ( 'NONE', *, *, #97, .T. ) ;
#237 = CARTESIAN_POINT ( 'NONE',  ( -6.613276018571767954E-32, 2.319624973480558152E-33, -1.894117532578022721E-17 ) ) ;
#238 = ADVANCED_FACE ( 'NONE', ( #139, #297 ), #266, .T. ) ;
#239 = DIRECTION ( 'NONE',  ( -3.491481338843133355E-15, 1.224646799147353207E-16, -1.000000000000000000 ) ) ;
#240 = AXIS2_PLACEMENT_3D ( 'NONE', #149, #34, #128 ) ;
#241 = DIRECTION ( 'NONE',  ( -3.491481338843133355E-15, 1.224646799147353207E-16, -1.000000000000000000 ) ) ;
#242 = PLANE ( 'NONE',  #80 ) ;
#243 = FACE_OUTER_BOUND ( 'NONE', #282, .T. ) ;
#244 = FACE_OUTER_BOUND ( 'NONE', #171, .T. ) ;
#245 = CC_DESIGN_APPROVAL ( #232, ( #190 ) ) ;
#246 = DIRECTION ( 'NONE',  ( -3.491481338843133355E-15, 1.224646799147353207E-16, -1.000000000000000000 ) ) ;
#247 = ADVANCED_FACE ( 'NONE', ( #298, #43 ), #198, .T. ) ;
#248 = CARTESIAN_POINT ( 'NONE',  ( 6.332621528753463753E-14, -2.221184629893844062E-15, 18.13734891921751924 ) ) ;
#249 = AXIS2_PLACEMENT_3D ( 'NONE', #103, #221, #295 ) ;
#250 = CARTESIAN_POINT ( 'NONE',  ( 8.728703347107829444E-16, -3.061616997868381785E-17, 0.2499999999999998890 ) ) ;
#251 = PRODUCT_DEFINITION ( 'UNKNOWN', '', #17, #200 ) ;
#252 = APPROVAL_DATE_TIME ( #69, #287 ) ;
#253 = APPROVAL_ROLE ( '' ) ;
#254 = AXIS2_PLACEMENT_3D ( 'NONE', #195, #102, #289 ) ;
#255 = EDGE_LOOP ( 'NONE', ( #169 ) ) ;
#256 = DATE_AND_TIME ( #208, #23 ) ;
#257 = ORIENTED_EDGE ( 'NONE', *, *, #82, .F. ) ;
#258 = ADVANCED_FACE ( 'NONE', ( #113, #14 ), #137, .T. ) ;
#259 = ORIENTED_EDGE ( 'NONE', *, *, #51, .F. ) ;
#260 = APPROVAL_ROLE ( '' ) ;
#261 = TOROIDAL_SURFACE ( 'NONE', #218, 2.625000000000000444, 2.000000000000000000 ) ;
#262 = EDGE_CURVE ( 'NONE', #87, #87, #4, .T. ) ;
#263 = DIRECTION ( 'NONE',  ( 4.275831445896958607E-31, 1.000000000000000000, 1.224646799147353207E-16 ) ) ;
#264 = DIRECTION ( 'NONE',  ( -3.491481338843133355E-15, 1.224646799147353207E-16, -1.000000000000000000 ) ) ;
#265 = FACE_OUTER_BOUND ( 'NONE', #216, .T. ) ;
#266 = CONICAL_SURFACE ( 'NONE', #62, 1.200000000000003286, 0.7853981633974453924 ) ;
#267 = CC_DESIGN_APPROVAL ( #130, ( #251 ) ) ;
#268 = CYLINDRICAL_SURFACE ( 'NONE', #65, 1.500000000000000444 ) ;
#269 = CARTESIAN_POINT ( 'NONE',  ( 1.326762908760390423E-13, -4.653657836759941941E-15, 38.00000000000000000 ) ) ;
#270 = VERTEX_POINT ( 'NONE', #61 ) ;
#271 = AXIS2_PLACEMENT_3D ( 'NONE', #220, #153, #81 ) ;
#272 = VERTEX_POINT ( 'NONE', #36 ) ;
#273 = DIRECTION ( 'NONE',  ( 4.275831445896958607E-31, 1.000000000000000000, 1.224646799147353207E-16 ) ) ;
#274 = DIRECTION ( 'NONE',  ( 0.0000000000000000000, 1.000000000000000000, 0.0000000000000000000 ) ) ;
#275 = CC_DESIGN_SECURITY_CLASSIFICATION ( #190, ( #17 ) ) ;
#276 = CALENDAR_DATE ( 2021, 1, 12 ) ;
#277 = CLOSED_SHELL ( 'NONE', ( #115, #225, #32, #92 ) ) ;
#278 = SECURITY_CLASSIFICATION_LEVEL ( 'unclassified' ) ;
#279 = CC_DESIGN_PERSON_AND_ORGANIZATION_ASSIGNMENT ( #215, #71, ( #17 ) ) ;
#280 = AXIS2_PLACEMENT_3D ( 'NONE', #288, #77, #174 ) ;
#281 = PERSON_AND_ORGANIZATION_ROLE ( 'classification_officer' ) ;
#282 = EDGE_LOOP ( 'NONE', ( #186 ) ) ;
#283 = DATE_AND_TIME ( #276, #150 ) ;
#284 = ORIENTED_EDGE ( 'NONE', *, *, #82, .T. ) ;
#285 = EDGE_LOOP ( 'NONE', ( #122 ) ) ;
#286 = CIRCLE ( 'NONE', #133, 1.200000000000003286 ) ;
#287 = APPROVAL ( #189, 'UNSPECIFIED' ) ;
#288 = CARTESIAN_POINT ( 'NONE',  ( 6.332621528753463753E-14, -2.221184629893844062E-15, 18.13734891921751924 ) ) ;
#289 = DIRECTION ( 'NONE',  ( -4.275831445896958607E-31, -1.000000000000000000, -1.224646799147353207E-16 ) ) ;
#290 = DIRECTION ( 'NONE',  ( -3.491481338843133355E-15, 1.224646799147353207E-16, -1.000000000000000000 ) ) ;
#291 = CC_DESIGN_DATE_AND_TIME_ASSIGNMENT ( #117, #73, ( #190 ) ) ;
#292 = AXIS2_PLACEMENT_3D ( 'NONE', #132, #148, #78 ) ;
#293 = APPROVAL_PERSON_ORGANIZATION ( #26, #287, #166 ) ;
#294 = FACE_OUTER_BOUND ( 'NONE', #191, .T. ) ;
#295 = DIRECTION ( 'NONE',  ( 0.0000000000000000000, 1.000000000000000000, 0.0000000000000000000 ) ) ;
#296 = AXIS2_PLACEMENT_3D ( 'NONE', #121, #144, #46 ) ;
#297 = FACE_BOUND ( 'NONE', #100, .T. ) ;
#298 = FACE_OUTER_BOUND ( 'NONE', #74, .T. ) ;
#299 = DIRECTION ( 'NONE',  ( 3.491481338843133355E-15, -1.224646799147353207E-16, 1.000000000000000000 ) ) ;
#300 = PRODUCT_RELATED_PRODUCT_CATEGORY ( 'detail', '', ( #1 ) ) ;
#301 = CARTESIAN_POINT ( 'NONE',  ( 4.538925740496073362E-14, 0.6249999999999987788, 13.00000000000000000 ) ) ;
#302 = APPROVAL_DATE_TIME ( #256, #232 ) ;
#303 = EDGE_LOOP ( 'NONE', ( #257 ) ) ;
ENDSEC;
END-ISO-10303-21;
