ISO-10303-21;
HEADER;
FILE_DESCRIPTION (( 'STEP AP203' ),
    '1' );
FILE_NAME ('200733.step',
    '2021-12-01T10:39:52',
    ( '' ),
    ( '' ),
    'SwSTEP 2.0',
    'SolidWorks 2019',
    '' );
FILE_SCHEMA (( 'CONFIG_CONTROL_DESIGN' ));
ENDSEC;

DATA;
#1 = AXIS2_PLACEMENT_3D ( 'NONE', #226, #275, #24 ) ;
#2 = DIRECTION ( 'NONE',  ( 3.491481338843133355E-15, -1.224646799147353207E-16, 1.000000000000000000 ) ) ;
#3 = MANIFOLD_SOLID_BREP ( 'Corps-Déplacer/Copier1[2]', #202 ) ;
#4 = FACE_OUTER_BOUND ( 'NONE', #265, .T. ) ;
#5 = CONICAL_SURFACE ( 'NONE', #146, 1.499999999999997335, 0.1745329251994260922 ) ;
#6 = EDGE_LOOP ( 'NONE', ( #32 ) ) ;
#7 = MANIFOLD_SOLID_BREP ( 'Corps-Déplacer/Copier1[1]', #167 ) ;
#8 = APPROVAL_STATUS ( 'not_yet_approved' ) ;
#9 = EDGE_LOOP ( 'NONE', ( #56 ) ) ;
#10 = PERSON_AND_ORGANIZATION_ROLE ( 'creator' ) ;
#11 = ADVANCED_FACE ( 'NONE', ( #84 ), #279, .F. ) ;
#12 = DATE_AND_TIME ( #82, #72 ) ;
#13 = ORIENTED_EDGE ( 'NONE', *, *, #66, .F. ) ;
#14 = CIRCLE ( 'NONE', #222, 1.500000000000003331 ) ;
#15 = APPROVAL_STATUS ( 'not_yet_approved' ) ;
#16 = ORIENTED_EDGE ( 'NONE', *, *, #184, .F. ) ;
#17 = DIRECTION ( 'NONE',  ( -3.491481338843133355E-15, 1.224646799147353207E-16, -1.000000000000000000 ) ) ;
#18 = ADVANCED_FACE ( 'NONE', ( #106, #161 ), #131, .T. ) ;
#19 = ORGANIZATION ( 'UNSPECIFIED', 'UNSPECIFIED', '' ) ;
#20 = ORIENTED_EDGE ( 'NONE', *, *, #210, .T. ) ;
#21 = AXIS2_PLACEMENT_3D ( 'NONE', #206, #276, #208 ) ;
#22 = CARTESIAN_POINT ( 'NONE',  ( 0.0000000000000000000, 0.0000000000000000000, 0.0000000000000000000 ) ) ;
#23 = DIRECTION ( 'NONE',  ( 3.491481338843133355E-15, -1.224646799147353207E-16, 1.000000000000000000 ) ) ;
#24 = DIRECTION ( 'NONE',  ( -4.232813064587336213E-31, -1.000000000000000000, -1.191430958775280912E-16 ) ) ;
#25 = DIRECTION ( 'NONE',  ( -4.275831445896958607E-31, -1.000000000000000000, -1.224646799147353207E-16 ) ) ;
#26 = APPROVAL ( #129, 'UNSPECIFIED' ) ;
#27 = DIRECTION ( 'NONE',  ( -3.491481338843133355E-15, 1.224646799147353207E-16, -1.000000000000000000 ) ) ;
#28 = DIRECTION ( 'NONE',  ( 4.275831445896958607E-31, 1.000000000000000000, 1.224646799147353207E-16 ) ) ;
#29 = CARTESIAN_POINT ( 'NONE',  ( 1.316288464743861212E-13, 1.499999999999998668, 37.69999999999999574 ) ) ;
#30 = PERSON ( 'UNSPECIFIED', 'UNSPECIFIED', 'UNSPECIFIED', ('UNSPECIFIED'), ('UNSPECIFIED'), ('UNSPECIFIED') ) ;
#31 = PERSON_AND_ORGANIZATION ( #30, #19 ) ;
#32 = ORIENTED_EDGE ( 'NONE', *, *, #164, .F. ) ;
#33 = DIRECTION ( 'NONE',  ( 0.0000000000000000000, 0.0000000000000000000, 1.000000000000000000 ) ) ;
#34 = EDGE_LOOP ( 'NONE', ( #16 ) ) ;
#35 = ORIENTED_EDGE ( 'NONE', *, *, #123, .T. ) ;
#36 = ORIENTED_EDGE ( 'NONE', *, *, #210, .F. ) ;
#37 = DIRECTION ( 'NONE',  ( 4.232813064587336213E-31, 1.000000000000000000, 1.191430958775280912E-16 ) ) ;
#38 = AXIS2_PLACEMENT_3D ( 'NONE', #178, #229, #114 ) ;
#39 = FACE_OUTER_BOUND ( 'NONE', #204, .T. ) ;
#40 = DIRECTION ( 'NONE',  ( -3.491481338843133355E-15, 1.224646799147353207E-16, -1.000000000000000000 ) ) ;
#41 = PLANE ( 'NONE',  #97 ) ;
#42 = CYLINDRICAL_SURFACE ( 'NONE', #79, 0.4149999999999997025 ) ;
#43 = EDGE_CURVE ( 'NONE', #239, #239, #68, .T. ) ;
#44 = DIRECTION ( 'NONE',  ( 3.491481338843133355E-15, -1.224646799147353207E-16, 1.000000000000000000 ) ) ;
#45 = CARTESIAN_POINT ( 'NONE',  ( 1.745740669421566678E-14, 0.4549999999999994049, 5.000000000000000000 ) ) ;
#46 = APPLICATION_CONTEXT ( 'configuration controlled 3d designs of mechanical parts and assemblies' ) ;
#47 = CONICAL_SURFACE ( 'NONE', #38, 1.200000000000003286, 0.7853981633974453924 ) ;
#48 = AXIS2_PLACEMENT_3D ( 'NONE', #61, #158, #37 ) ;
#49 = DIRECTION ( 'NONE',  ( -3.491481338843133355E-15, 1.224646799147353207E-16, -1.000000000000000000 ) ) ;
#50 = CALENDAR_DATE ( 2021, 1, 12 ) ;
#51 = COORDINATED_UNIVERSAL_TIME_OFFSET ( 1, 0, .AHEAD. ) ;
#52 = SECURITY_CLASSIFICATION ( '', '', #74 ) ;
#53 = CIRCLE ( 'NONE', #108, 0.4149999999999999245 ) ;
#54 = EDGE_LOOP ( 'NONE', ( #36 ) ) ;
#55 = ADVANCED_FACE ( 'NONE', ( #253, #230 ), #212, .F. ) ;
#56 = ORIENTED_EDGE ( 'NONE', *, *, #285, .F. ) ;
#57 = UNCERTAINTY_MEASURE_WITH_UNIT (LENGTH_MEASURE( 1.000000000000000082E-05 ), #96, 'distance_accuracy_value', 'NONE');
#58 = DATE_AND_TIME ( #101, #301 ) ;
#59 = CIRCLE ( 'NONE', #133, 0.4453844939755811638 ) ;
#60 = CARTESIAN_POINT ( 'NONE',  ( 1.745740669421566678E-14, 3.411953505555717437E-33, 5.000000000000000000 ) ) ;
#61 = CARTESIAN_POINT ( 'NONE',  ( 6.982962677686265724E-16, -2.449293598294705921E-17, 0.1999999999999999556 ) ) ;
#62 = DIRECTION ( 'NONE',  ( 0.0000000000000000000, 1.000000000000000000, 0.0000000000000000000 ) ) ;
#63 = ADVANCED_FACE ( 'NONE', ( #295, #250 ), #5, .T. ) ;
#64 = FACE_OUTER_BOUND ( 'NONE', #9, .T. ) ;
#65 = CARTESIAN_POINT ( 'NONE',  ( 3.491481338843133355E-14, -1.301042606982605321E-15, 10.00000000000000000 ) ) ;
#66 = EDGE_CURVE ( 'NONE', #138, #138, #53, .T. ) ;
#67 = VERTEX_POINT ( 'NONE', #189 ) ;
#68 = CIRCLE ( 'NONE', #191, 0.4550000000000000155 ) ;
#69 = DIRECTION ( 'NONE',  ( -3.491481338843133355E-15, 1.224646799147353207E-16, -1.000000000000000000 ) ) ;
#70 = VERTEX_POINT ( 'NONE', #45 ) ;
#71 = DIRECTION ( 'NONE',  ( -3.491481338843133355E-15, 1.224646799147353207E-16, -1.000000000000000000 ) ) ;
#72 = LOCAL_TIME ( 11, 39, 52.00000000000000000, #102 ) ;
#73 = DIRECTION ( 'NONE',  ( 4.275831445896958607E-31, 1.000000000000000000, 1.224646799147353207E-16 ) ) ;
#74 = SECURITY_CLASSIFICATION_LEVEL ( 'unclassified' ) ;
#75 = APPROVAL_DATE_TIME ( #269, #26 ) ;
#76 = ADVANCED_FACE ( 'NONE', ( #225, #39 ), #179, .T. ) ;
#77 = EDGE_LOOP ( 'NONE', ( #105 ) ) ;
#78 = DATE_TIME_ROLE ( 'classification_date' ) ;
#79 = AXIS2_PLACEMENT_3D ( 'NONE', #209, #236, #73 ) ;
#80 = EDGE_LOOP ( 'NONE', ( #288 ) ) ;
#81 = PERSON_AND_ORGANIZATION_ROLE ( 'design_owner' ) ;
#82 = CALENDAR_DATE ( 2021, 1, 12 ) ;
#83 = ORIENTED_EDGE ( 'NONE', *, *, #123, .F. ) ;
#84 = FACE_OUTER_BOUND ( 'NONE', #80, .T. ) ;
#85 = DIRECTION ( 'NONE',  ( 3.491481338843133355E-15, -1.224646799147353207E-16, 1.000000000000000000 ) ) ;
#86 = FACE_BOUND ( 'NONE', #248, .T. ) ;
#87 = ADVANCED_FACE ( 'NONE', ( #176, #135 ), #47, .T. ) ;
#88 = DIRECTION ( 'NONE',  ( -3.491481338843133355E-15, 1.224646799147353207E-16, -1.000000000000000000 ) ) ;
#89 = AXIS2_PLACEMENT_3D ( 'NONE', #256, #27, #28 ) ;
#90 = DIRECTION ( 'NONE',  ( 4.275831445896958607E-31, 1.000000000000000000, 1.224646799147353207E-16 ) ) ;
#91 = FACE_OUTER_BOUND ( 'NONE', #103, .T. ) ;
#92 =( NAMED_UNIT ( * ) SI_UNIT ( $, .STERADIAN. ) SOLID_ANGLE_UNIT ( ) );
#93 = AXIS2_PLACEMENT_3D ( 'NONE', #190, #255, #303 ) ;
#94 = CARTESIAN_POINT ( 'NONE',  ( 5.701001794551369102E-14, -1.999642249826250109E-15, 16.32831810133729178 ) ) ;
#95 = CARTESIAN_POINT ( 'NONE',  ( 1.316288464743861212E-13, -4.616918432785521081E-15, 37.69999999999999574 ) ) ;
#96 =( LENGTH_UNIT ( ) NAMED_UNIT ( * ) SI_UNIT ( .MILLI., .METRE. ) );
#97 = AXIS2_PLACEMENT_3D ( 'NONE', #143, #44, #187 ) ;
#98 = EDGE_LOOP ( 'NONE', ( #13 ) ) ;
#99 = ADVANCED_FACE ( 'NONE', ( #231, #86 ), #128, .T. ) ;
#100 = EDGE_LOOP ( 'NONE', ( #224 ) ) ;
#101 = CALENDAR_DATE ( 2021, 1, 12 ) ;
#102 = COORDINATED_UNIVERSAL_TIME_OFFSET ( 1, 0, .AHEAD. ) ;
#103 = EDGE_LOOP ( 'NONE', ( #83 ) ) ;
#104 = APPROVAL_DATE_TIME ( #12, #151 ) ;
#105 = ORIENTED_EDGE ( 'NONE', *, *, #172, .F. ) ;
#106 = FACE_OUTER_BOUND ( 'NONE', #270, .T. ) ;
#107 = LOCAL_TIME ( 11, 39, 52.00000000000000000, #263 ) ;
#108 = AXIS2_PLACEMENT_3D ( 'NONE', #113, #278, #109 ) ;
#109 = DIRECTION ( 'NONE',  ( 0.0000000000000000000, 1.000000000000000000, 0.0000000000000000000 ) ) ;
#110 = CC_DESIGN_PERSON_AND_ORGANIZATION_ASSIGNMENT ( #147, #81, ( #240 ) ) ;
#111 = CC_DESIGN_PERSON_AND_ORGANIZATION_ASSIGNMENT ( #289, #150, ( #282 ) ) ;
#112 = ORIENTED_EDGE ( 'NONE', *, *, #184, .T. ) ;
#113 = CARTESIAN_POINT ( 'NONE',  ( 3.491481338843133355E-14, -1.224646799147353256E-15, 10.00000000000000000 ) ) ;
#114 = DIRECTION ( 'NONE',  ( 0.0000000000000000000, 1.000000000000000000, 0.0000000000000000000 ) ) ;
#115 = CIRCLE ( 'NONE', #21, 1.200000000000003286 ) ;
#116 =( NAMED_UNIT ( * ) PLANE_ANGLE_UNIT ( ) SI_UNIT ( $, .RADIAN. ) );
#117 = VERTEX_POINT ( 'NONE', #139 ) ;
#118 = CARTESIAN_POINT ( 'NONE',  ( 6.982962677686267697E-16, 0.4549999999999994604, 0.2000000000000000111 ) ) ;
#119 = CIRCLE ( 'NONE', #93, 0.3395299461620759351 ) ;
#120 = PRODUCT_DEFINITION ( 'UNKNOWN', '', #282, #273 ) ;
#121 = CARTESIAN_POINT ( 'NONE',  ( 3.491481338843133355E-14, 0.4149999999999987033, 10.00000000000000000 ) ) ;
#122 = VERTEX_POINT ( 'NONE', #215 ) ;
#123 = EDGE_CURVE ( 'NONE', #67, #67, #115, .T. ) ;
#124 = CARTESIAN_POINT ( 'NONE',  ( 0.0000000000000000000, 0.0000000000000000000, 0.0000000000000000000 ) ) ;
#125 = EDGE_LOOP ( 'NONE', ( #200 ) ) ;
#126 = PERSON_AND_ORGANIZATION_ROLE ( 'classification_officer' ) ;
#127 = EDGE_LOOP ( 'NONE', ( #35 ) ) ;
#128 = CONICAL_SURFACE ( 'NONE', #281, 0.4149999999999993694, 0.5235987755982927094 ) ;
#129 = APPROVAL_STATUS ( 'not_yet_approved' ) ;
#130 = DIRECTION ( 'NONE',  ( 0.0000000000000000000, -1.000000000000000000, 0.0000000000000000000 ) ) ;
#131 = CYLINDRICAL_SURFACE ( 'NONE', #261, 1.500000000000000444 ) ;
#132 = CC_DESIGN_PERSON_AND_ORGANIZATION_ASSIGNMENT ( #169, #10, ( #120 ) ) ;
#133 = AXIS2_PLACEMENT_3D ( 'NONE', #182, #249, #177 ) ;
#134 = DIRECTION ( 'NONE',  ( 4.275831445896958607E-31, 1.000000000000000000, 1.224646799147353207E-16 ) ) ;
#135 = FACE_BOUND ( 'NONE', #127, .T. ) ;
#136 = CARTESIAN_POINT ( 'NONE',  ( 1.769930361711787028E-14, -6.208080014834760946E-16, 5.069282032302757202 ) ) ;
#137 = VERTEX_POINT ( 'NONE', #284 ) ;
#138 = VERTEX_POINT ( 'NONE', #121 ) ;
#139 = CARTESIAN_POINT ( 'NONE',  ( 3.612739213212769742E-14, 0.4453844939755798871, 10.34729635533384773 ) ) ;
#140 = PRODUCT_RELATED_PRODUCT_CATEGORY ( 'detail', '', ( #240 ) ) ;
#141 = DIRECTION ( 'NONE',  ( -3.491481338843133355E-15, 1.224646799147353207E-16, -1.000000000000000000 ) ) ;
#142 = CIRCLE ( 'NONE', #153, 1.499999999999997335 ) ;
#143 = CARTESIAN_POINT ( 'NONE',  ( 1.745740669421566678E-14, 3.411953505555717437E-33, 5.000000000000000000 ) ) ;
#144 = DATE_AND_TIME ( #50, #162 ) ;
#145 = PERSON_AND_ORGANIZATION ( #30, #19 ) ;
#146 = AXIS2_PLACEMENT_3D ( 'NONE', #157, #23, #130 ) ;
#147 = PERSON_AND_ORGANIZATION ( #30, #19 ) ;
#148 = ORIENTED_EDGE ( 'NONE', *, *, #285, .T. ) ;
#149 = PRODUCT_DEFINITION_SHAPE ( 'NONE', 'NONE',  #120 ) ;
#150 = PERSON_AND_ORGANIZATION_ROLE ( 'creator' ) ;
#151 = APPROVAL ( #15, 'UNSPECIFIED' ) ;
#152 = DIRECTION ( 'NONE',  ( 1.000000000000000000, 0.0000000000000000000, 0.0000000000000000000 ) ) ;
#153 = AXIS2_PLACEMENT_3D ( 'NONE', #94, #49, #183 ) ;
#154 = ORIENTED_EDGE ( 'NONE', *, *, #245, .F. ) ;
#155 = ADVANCED_BREP_SHAPE_REPRESENTATION ( '200733', ( #7, #3, #185 ), #292 ) ;
#156 = ADVANCED_FACE ( 'NONE', ( #203, #201 ), #297, .T. ) ;
#157 = CARTESIAN_POINT ( 'NONE',  ( 5.701001794551369102E-14, -1.999642249826250109E-15, 16.32831810133729178 ) ) ;
#158 = DIRECTION ( 'NONE',  ( -3.491481338843133355E-15, 1.224646799147353207E-16, -1.000000000000000000 ) ) ;
#159 = CARTESIAN_POINT ( 'NONE',  ( 0.0000000000000000000, 0.0000000000000000000, 0.0000000000000000000 ) ) ;
#160 = APPROVAL_PERSON_ORGANIZATION ( #223, #26, #173 ) ;
#161 = FACE_OUTER_BOUND ( 'NONE', #125, .T. ) ;
#162 = LOCAL_TIME ( 11, 39, 52.00000000000000000, #262 ) ;
#163 = PLANE ( 'NONE',  #89 ) ;
#164 = EDGE_CURVE ( 'NONE', #117, #117, #59, .T. ) ;
#165 = VERTEX_POINT ( 'NONE', #118 ) ;
#166 = DIRECTION ( 'NONE',  ( 0.0000000000000000000, 1.000000000000000000, 0.0000000000000000000 ) ) ;
#167 = CLOSED_SHELL ( 'NONE', ( #11, #99, #174, #55, #63, #18, #87, #259 ) ) ;
#168 = DIRECTION ( 'NONE',  ( 0.0000000000000000000, 1.000000000000000000, 0.0000000000000000000 ) ) ;
#169 = PERSON_AND_ORGANIZATION ( #30, #19 ) ;
#170 = CALENDAR_DATE ( 2021, 1, 12 ) ;
#171 = EDGE_LOOP ( 'NONE', ( #154 ) ) ;
#172 = EDGE_CURVE ( 'NONE', #165, #165, #227, .T. ) ;
#173 = APPROVAL_ROLE ( '' ) ;
#174 = ADVANCED_FACE ( 'NONE', ( #64, #283 ), #42, .T. ) ;
#175 = CIRCLE ( 'NONE', #232, 0.4149999999999993694 ) ;
#176 = FACE_OUTER_BOUND ( 'NONE', #171, .T. ) ;
#177 = DIRECTION ( 'NONE',  ( 0.0000000000000000000, 1.000000000000000000, 0.0000000000000000000 ) ) ;
#178 = CARTESIAN_POINT ( 'NONE',  ( 1.326762908760390423E-13, -4.653657836759941941E-15, 38.00000000000000000 ) ) ;
#179 = CONICAL_SURFACE ( 'NONE', #1, 0.4549999999999994604, 0.5235987755982927094 ) ;
#180 = AXIS2_PLACEMENT_3D ( 'NONE', #159, #88, #90 ) ;
#181 = DIRECTION ( 'NONE',  ( -4.275831445896958607E-31, -1.000000000000000000, -1.224646799147353207E-16 ) ) ;
#182 = CARTESIAN_POINT ( 'NONE',  ( 3.612739213212769742E-14, -1.267178336138866969E-15, 10.34729635533384773 ) ) ;
#183 = DIRECTION ( 'NONE',  ( 0.0000000000000000000, 1.000000000000000000, 0.0000000000000000000 ) ) ;
#184 = EDGE_CURVE ( 'NONE', #137, #137, #119, .T. ) ;
#185 = AXIS2_PLACEMENT_3D ( 'NONE', #124, #33, #152 ) ;
#186 = ADVANCED_FACE ( 'NONE', ( #4 ), #286, .F. ) ;
#187 = DIRECTION ( 'NONE',  ( -4.275831445896958607E-31, -1.000000000000000000, -1.224646799147353207E-16 ) ) ;
#188 = CC_DESIGN_APPROVAL ( #217, ( #52 ) ) ;
#189 = CARTESIAN_POINT ( 'NONE',  ( 1.326762908760390423E-13, 1.199999999999998845, 38.00000000000000000 ) ) ;
#190 = CARTESIAN_POINT ( 'NONE',  ( -2.398140733815085828E-31, 8.411545383039720185E-33, -6.868548049034355180E-17 ) ) ;
#191 = AXIS2_PLACEMENT_3D ( 'NONE', #299, #40, #62 ) ;
#192 = EDGE_LOOP ( 'NONE', ( #20 ) ) ;
#193 = APPROVAL_ROLE ( '' ) ;
#194 = ORIENTED_EDGE ( 'NONE', *, *, #43, .F. ) ;
#195 = DATE_TIME_ROLE ( 'creation_date' ) ;
#196 = CC_DESIGN_APPROVAL ( #26, ( #120 ) ) ;
#197 = APPLICATION_PROTOCOL_DEFINITION ( 'international standard', 'config_control_design', 1994, #274 ) ;
#198 = EDGE_LOOP ( 'NONE', ( #247 ) ) ;
#199 = PERSON_AND_ORGANIZATION_ROLE ( 'design_supplier' ) ;
#200 = ORIENTED_EDGE ( 'NONE', *, *, #245, .T. ) ;
#201 = FACE_OUTER_BOUND ( 'NONE', #192, .T. ) ;
#202 = CLOSED_SHELL ( 'NONE', ( #186, #76, #156, #296 ) ) ;
#203 = FACE_OUTER_BOUND ( 'NONE', #77, .T. ) ;
#204 = EDGE_LOOP ( 'NONE', ( #221 ) ) ;
#205 = CC_DESIGN_PERSON_AND_ORGANIZATION_ASSIGNMENT ( #294, #126, ( #52 ) ) ;
#206 = CARTESIAN_POINT ( 'NONE',  ( 1.326762908760390423E-13, -4.653657836759941941E-15, 38.00000000000000000 ) ) ;
#207 = CC_DESIGN_DATE_AND_TIME_ASSIGNMENT ( #58, #195, ( #120 ) ) ;
#208 = DIRECTION ( 'NONE',  ( 0.0000000000000000000, 1.000000000000000000, 0.0000000000000000000 ) ) ;
#209 = CARTESIAN_POINT ( 'NONE',  ( 0.0000000000000000000, 0.0000000000000000000, 0.0000000000000000000 ) ) ;
#210 = EDGE_CURVE ( 'NONE', #70, #70, #266, .T. ) ;
#211 = CARTESIAN_POINT ( 'NONE',  ( 1.745740669421566678E-14, -6.123233995736766282E-16, 5.000000000000000000 ) ) ;
#212 = TOROIDAL_SURFACE ( 'NONE', #300, 2.415000000000000036, 2.000000000000000000 ) ;
#213 = CC_DESIGN_SECURITY_CLASSIFICATION ( #52, ( #282 ) ) ;
#214 = VERTEX_POINT ( 'NONE', #233 ) ;
#215 = CARTESIAN_POINT ( 'NONE',  ( 1.769930361711787028E-14, 0.4149999999999987588, 5.069282032302757202 ) ) ;
#216 = MECHANICAL_CONTEXT ( 'NONE', #274, 'mechanical' ) ;
#217 = APPROVAL ( #8, 'UNSPECIFIED' ) ;
#218 = APPLICATION_PROTOCOL_DEFINITION ( 'international standard', 'config_control_design', 1994, #46 ) ;
#219 = ORIENTED_EDGE ( 'NONE', *, *, #66, .T. ) ;
#220 = DATE_AND_TIME ( #170, #267 ) ;
#221 = ORIENTED_EDGE ( 'NONE', *, *, #172, .T. ) ;
#222 = AXIS2_PLACEMENT_3D ( 'NONE', #95, #69, #166 ) ;
#223 = PERSON_AND_ORGANIZATION ( #30, #19 ) ;
#224 = ORIENTED_EDGE ( 'NONE', *, *, #234, .T. ) ;
#225 = FACE_BOUND ( 'NONE', #34, .T. ) ;
#226 = CARTESIAN_POINT ( 'NONE',  ( 6.982962677686265724E-16, -2.449293598294705921E-17, 0.1999999999999999556 ) ) ;
#227 = CIRCLE ( 'NONE', #48, 0.4549999999999994604 ) ;
#228 = CC_DESIGN_APPROVAL ( #151, ( #282 ) ) ;
#229 = DIRECTION ( 'NONE',  ( -3.491481338843133355E-15, 1.224646799147353207E-16, -1.000000000000000000 ) ) ;
#230 = FACE_OUTER_BOUND ( 'NONE', #198, .T. ) ;
#231 = FACE_OUTER_BOUND ( 'NONE', #290, .T. ) ;
#232 = AXIS2_PLACEMENT_3D ( 'NONE', #280, #141, #168 ) ;
#233 = CARTESIAN_POINT ( 'NONE',  ( 5.701001794551369102E-14, 1.499999999999995559, 16.32831810133729178 ) ) ;
#234 = EDGE_CURVE ( 'NONE', #214, #214, #142, .T. ) ;
#235 = VERTEX_POINT ( 'NONE', #29 ) ;
#236 = DIRECTION ( 'NONE',  ( -3.491481338843133355E-15, 1.224646799147353207E-16, -1.000000000000000000 ) ) ;
#237 = CARTESIAN_POINT ( 'NONE',  ( -1.199070366907542914E-31, 4.205772691519860092E-33, -3.434274024517177590E-17 ) ) ;
#238 = AXIS2_PLACEMENT_3D ( 'NONE', #60, #85, #181 ) ;
#239 = VERTEX_POINT ( 'NONE', #257 ) ;
#240 = PRODUCT ( '200733', '200733', '', ( #216 ) ) ;
#241 = SHAPE_DEFINITION_REPRESENTATION ( #149, #155 ) ;
#242 = PERSON_AND_ORGANIZATION ( #30, #19 ) ;
#243 = APPROVAL_PERSON_ORGANIZATION ( #242, #217, #268 ) ;
#244 = ORIENTED_EDGE ( 'NONE', *, *, #234, .F. ) ;
#245 = EDGE_CURVE ( 'NONE', #235, #235, #14, .T. ) ;
#246 = CALENDAR_DATE ( 2021, 1, 12 ) ;
#247 = ORIENTED_EDGE ( 'NONE', *, *, #164, .T. ) ;
#248 = EDGE_LOOP ( 'NONE', ( #148 ) ) ;
#249 = DIRECTION ( 'NONE',  ( -3.491481338843133355E-15, 1.224646799147353207E-16, -1.000000000000000000 ) ) ;
#250 = FACE_OUTER_BOUND ( 'NONE', #100, .T. ) ;
#251 = CC_DESIGN_DATE_AND_TIME_ASSIGNMENT ( #144, #78, ( #52 ) ) ;
#252 = DIRECTION ( 'NONE',  ( 4.275831445896957731E-31, 1.000000000000000000, 1.224646799147353207E-16 ) ) ;
#253 = FACE_OUTER_BOUND ( 'NONE', #98, .T. ) ;
#254 = APPROVAL_PERSON_ORGANIZATION ( #31, #151, #193 ) ;
#255 = DIRECTION ( 'NONE',  ( -3.491481338843133355E-15, 1.224646799147353207E-16, -1.000000000000000000 ) ) ;
#256 = CARTESIAN_POINT ( 'NONE',  ( 1.326762908760390423E-13, 8.998558695971103225E-33, 38.00000000000000000 ) ) ;
#257 = CARTESIAN_POINT ( 'NONE',  ( 1.745740669421566678E-14, 0.4549999999999994049, 5.000000000000000000 ) ) ;
#258 = CC_DESIGN_PERSON_AND_ORGANIZATION_ASSIGNMENT ( #145, #199, ( #282 ) ) ;
#259 = ADVANCED_FACE ( 'NONE', ( #91 ), #163, .F. ) ;
#260 = FACE_OUTER_BOUND ( 'NONE', #54, .T. ) ;
#261 = AXIS2_PLACEMENT_3D ( 'NONE', #22, #298, #134 ) ;
#262 = COORDINATED_UNIVERSAL_TIME_OFFSET ( 1, 0, .AHEAD. ) ;
#263 = COORDINATED_UNIVERSAL_TIME_OFFSET ( 1, 0, .AHEAD. ) ;
#264 = APPROVAL_DATE_TIME ( #220, #217 ) ;
#265 = EDGE_LOOP ( 'NONE', ( #112 ) ) ;
#266 = CIRCLE ( 'NONE', #277, 0.4550000000000000155 ) ;
#267 = LOCAL_TIME ( 11, 39, 52.00000000000000000, #291 ) ;
#268 = APPROVAL_ROLE ( '' ) ;
#269 = DATE_AND_TIME ( #246, #107 ) ;
#270 = EDGE_LOOP ( 'NONE', ( #244 ) ) ;
#271 = AXIS2_PLACEMENT_3D ( 'NONE', #237, #2, #25 ) ;
#272 = DIRECTION ( 'NONE',  ( 0.0000000000000000000, 1.000000000000000000, 0.0000000000000000000 ) ) ;
#273 = DESIGN_CONTEXT ( 'detailed design', #46, 'design' ) ;
#274 = APPLICATION_CONTEXT ( 'configuration controlled 3d designs of mechanical parts and assemblies' ) ;
#275 = DIRECTION ( 'NONE',  ( 3.491481338843133355E-15, -1.224646799147353207E-16, 1.000000000000000000 ) ) ;
#276 = DIRECTION ( 'NONE',  ( -3.491481338843133355E-15, 1.224646799147353207E-16, -1.000000000000000000 ) ) ;
#277 = AXIS2_PLACEMENT_3D ( 'NONE', #211, #71, #287 ) ;
#278 = DIRECTION ( 'NONE',  ( -3.491481338843133355E-15, 1.224646799147353207E-16, -1.000000000000000000 ) ) ;
#279 = PLANE ( 'NONE',  #238 ) ;
#280 = CARTESIAN_POINT ( 'NONE',  ( 1.769930361711787028E-14, -6.208080014834760946E-16, 5.069282032302757202 ) ) ;
#281 = AXIS2_PLACEMENT_3D ( 'NONE', #136, #17, #272 ) ;
#282 = PRODUCT_DEFINITION_FORMATION_WITH_SPECIFIED_SOURCE ( 'ANY', '', #240, .NOT_KNOWN. ) ;
#283 = FACE_OUTER_BOUND ( 'NONE', #293, .T. ) ;
#284 = CARTESIAN_POINT ( 'NONE',  ( -9.463679131915804593E-32, 0.3395299461620759351, -2.710505431213760469E-17 ) ) ;
#285 = EDGE_CURVE ( 'NONE', #122, #122, #175, .T. ) ;
#286 = PLANE ( 'NONE',  #271 ) ;
#287 = DIRECTION ( 'NONE',  ( 0.0000000000000000000, 1.000000000000000000, 0.0000000000000000000 ) ) ;
#288 = ORIENTED_EDGE ( 'NONE', *, *, #43, .T. ) ;
#289 = PERSON_AND_ORGANIZATION ( #30, #19 ) ;
#290 = EDGE_LOOP ( 'NONE', ( #194 ) ) ;
#291 = COORDINATED_UNIVERSAL_TIME_OFFSET ( 1, 0, .AHEAD. ) ;
#292 =( GEOMETRIC_REPRESENTATION_CONTEXT ( 3 ) GLOBAL_UNCERTAINTY_ASSIGNED_CONTEXT ( ( #57 ) ) GLOBAL_UNIT_ASSIGNED_CONTEXT ( ( #96, #116, #92 ) ) REPRESENTATION_CONTEXT ( 'NONE', 'WORKASPACE' ) );
#293 = EDGE_LOOP ( 'NONE', ( #219 ) ) ;
#294 = PERSON_AND_ORGANIZATION ( #30, #19 ) ;
#295 = FACE_BOUND ( 'NONE', #6, .T. ) ;
#296 = ADVANCED_FACE ( 'NONE', ( #260 ), #41, .T. ) ;
#297 = CYLINDRICAL_SURFACE ( 'NONE', #180, 0.4549999999999997380 ) ;
#298 = DIRECTION ( 'NONE',  ( -3.491481338843133355E-15, 1.224646799147353207E-16, -1.000000000000000000 ) ) ;
#299 = CARTESIAN_POINT ( 'NONE',  ( 1.745740669421566678E-14, -6.123233995736766282E-16, 5.000000000000000000 ) ) ;
#300 = AXIS2_PLACEMENT_3D ( 'NONE', #65, #302, #252 ) ;
#301 = LOCAL_TIME ( 11, 39, 52.00000000000000000, #51 ) ;
#302 = DIRECTION ( 'NONE',  ( -3.491481338843133355E-15, 1.224646799147353207E-16, -1.000000000000000000 ) ) ;
#303 = DIRECTION ( 'NONE',  ( 4.275831445896957731E-31, 1.000000000000000000, 1.224646799147352961E-16 ) ) ;
ENDSEC;
END-ISO-10303-21;
