ISO-10303-21;
HEADER;
FILE_DESCRIPTION (( 'STEP AP203' ),
    '1' );
FILE_NAME ('200732.step',
    '2021-12-01T10:39:51',
    ( '' ),
    ( '' ),
    'SwSTEP 2.0',
    'SolidWorks 2019',
    '' );
FILE_SCHEMA (( 'CONFIG_CONTROL_DESIGN' ));
ENDSEC;

DATA;
#1 = CARTESIAN_POINT ( 'NONE',  ( 5.631697683309561963E-14, -1.975333639880148194E-15, 16.12982323765066539 ) ) ;
#2 = APPROVAL_PERSON_ORGANIZATION ( #136, #15, #295 ) ;
#3 = EDGE_LOOP ( 'NONE', ( #41 ) ) ;
#4 = FACE_OUTER_BOUND ( 'NONE', #190, .T. ) ;
#5 = DIRECTION ( 'NONE',  ( 4.275831445896957731E-31, 1.000000000000000000, 1.224646799147353207E-16 ) ) ;
#6 = FACE_BOUND ( 'NONE', #20, .T. ) ;
#7 = DIRECTION ( 'NONE',  ( -4.275831445896958607E-31, -1.000000000000000000, -1.224646799147353207E-16 ) ) ;
#8 = DIRECTION ( 'NONE',  ( -3.491481338843133355E-15, 1.224646799147353207E-16, -1.000000000000000000 ) ) ;
#9 = ADVANCED_FACE ( 'NONE', ( #287 ), #211, .F. ) ;
#10 = AXIS2_PLACEMENT_3D ( 'NONE', #1, #120, #140 ) ;
#11 = DIRECTION ( 'NONE',  ( -3.491481338843133355E-15, 1.224646799147353207E-16, -1.000000000000000000 ) ) ;
#12 = SECURITY_CLASSIFICATION ( '', '', #83 ) ;
#13 = DIRECTION ( 'NONE',  ( 0.0000000000000000000, 1.000000000000000000, 0.0000000000000000000 ) ) ;
#14 = PERSON_AND_ORGANIZATION ( #206, #226 ) ;
#15 = APPROVAL ( #39, 'UNSPECIFIED' ) ;
#16 = CIRCLE ( 'NONE', #174, 1.200000000000003286 ) ;
#17 = COORDINATED_UNIVERSAL_TIME_OFFSET ( 1, 0, .AHEAD. ) ;
#18 = PERSON_AND_ORGANIZATION ( #206, #226 ) ;
#19 = CALENDAR_DATE ( 2021, 1, 12 ) ;
#20 = EDGE_LOOP ( 'NONE', ( #91 ) ) ;
#21 = LOCAL_TIME ( 11, 39, 51.00000000000000000, #231 ) ;
#22 = FACE_OUTER_BOUND ( 'NONE', #278, .T. ) ;
#23 = PRODUCT_DEFINITION ( 'UNKNOWN', '', #134, #35 ) ;
#24 = ORIENTED_EDGE ( 'NONE', *, *, #187, .F. ) ;
#25 = CARTESIAN_POINT ( 'NONE',  ( 1.326762908760390423E-13, 8.998558695971103225E-33, 38.00000000000000000 ) ) ;
#26 = DIRECTION ( 'NONE',  ( 3.491481338843133355E-15, -1.224646799147353207E-16, 1.000000000000000000 ) ) ;
#27 = DIRECTION ( 'NONE',  ( -3.491481338843133355E-15, 1.224646799147353207E-16, -1.000000000000000000 ) ) ;
#28 = AXIS2_PLACEMENT_3D ( 'NONE', #269, #288, #77 ) ;
#29 = DIRECTION ( 'NONE',  ( 0.0000000000000000000, 1.000000000000000000, 0.0000000000000000000 ) ) ;
#30 = FACE_OUTER_BOUND ( 'NONE', #118, .T. ) ;
#31 = CC_DESIGN_PERSON_AND_ORGANIZATION_ASSIGNMENT ( #18, #177, ( #134 ) ) ;
#32 = VERTEX_POINT ( 'NONE', #129 ) ;
#33 = CC_DESIGN_APPROVAL ( #204, ( #23 ) ) ;
#34 = VERTEX_POINT ( 'NONE', #223 ) ;
#35 = DESIGN_CONTEXT ( 'detailed design', #196, 'design' ) ;
#36 = FACE_OUTER_BOUND ( 'NONE', #96, .T. ) ;
#37 = APPROVAL_DATE_TIME ( #155, #265 ) ;
#38 = PERSON_AND_ORGANIZATION ( #206, #226 ) ;
#39 = APPROVAL_STATUS ( 'not_yet_approved' ) ;
#40 = COORDINATED_UNIVERSAL_TIME_OFFSET ( 1, 0, .AHEAD. ) ;
#41 = ORIENTED_EDGE ( 'NONE', *, *, #99, .F. ) ;
#42 = CIRCLE ( 'NONE', #214, 0.5000000000000000000 ) ;
#43 = DIRECTION ( 'NONE',  ( -3.491481338843133355E-15, 1.224646799147353207E-16, -1.000000000000000000 ) ) ;
#44 = DIRECTION ( 'NONE',  ( 4.275831445896958607E-31, 1.000000000000000000, 1.224646799147353207E-16 ) ) ;
#45 = ORIENTED_EDGE ( 'NONE', *, *, #275, .F. ) ;
#46 = AXIS2_PLACEMENT_3D ( 'NONE', #119, #139, #5 ) ;
#47 = CARTESIAN_POINT ( 'NONE',  ( 1.745740669421566678E-14, -6.123233995736766282E-16, 5.000000000000000000 ) ) ;
#48 = DIRECTION ( 'NONE',  ( 0.0000000000000000000, -1.000000000000000000, 0.0000000000000000000 ) ) ;
#49 = DIRECTION ( 'NONE',  ( -3.491481338843133355E-15, 1.224646799147353207E-16, -1.000000000000000000 ) ) ;
#50 = CYLINDRICAL_SURFACE ( 'NONE', #268, 1.500000000000000444 ) ;
#51 = ADVANCED_FACE ( 'NONE', ( #22, #143 ), #97, .F. ) ;
#52 = EDGE_CURVE ( 'NONE', #153, #153, #16, .T. ) ;
#53 = DIRECTION ( 'NONE',  ( 3.491481338843133355E-15, -1.224646799147353207E-16, 1.000000000000000000 ) ) ;
#54 = DIRECTION ( 'NONE',  ( 3.491481338843133355E-15, -1.224646799147353207E-16, 1.000000000000000000 ) ) ;
#55 = CIRCLE ( 'NONE', #88, 1.500000000000003331 ) ;
#56 = CARTESIAN_POINT ( 'NONE',  ( 1.745740669421566678E-14, 3.749399456654634440E-33, 5.000000000000000000 ) ) ;
#57 = EDGE_LOOP ( 'NONE', ( #62 ) ) ;
#58 =( NAMED_UNIT ( * ) SI_UNIT ( $, .STERADIAN. ) SOLID_ANGLE_UNIT ( ) );
#59 = DATE_AND_TIME ( #19, #272 ) ;
#60 = CIRCLE ( 'NONE', #10, 1.499999999999997335 ) ;
#61 = CC_DESIGN_PERSON_AND_ORGANIZATION_ASSIGNMENT ( #276, #109, ( #23 ) ) ;
#62 = ORIENTED_EDGE ( 'NONE', *, *, #126, .F. ) ;
#63 = ADVANCED_FACE ( 'NONE', ( #282 ), #164, .F. ) ;
#64 = APPROVAL_STATUS ( 'not_yet_approved' ) ;
#65 = CC_DESIGN_DATE_AND_TIME_ASSIGNMENT ( #159, #182, ( #23 ) ) ;
#66 = DIRECTION ( 'NONE',  ( -3.851859888774476961E-31, -1.000000000000000000, -1.084202172485505913E-16 ) ) ;
#67 = EDGE_LOOP ( 'NONE', ( #253 ) ) ;
#68 = CARTESIAN_POINT ( 'NONE',  ( 1.745740669421566678E-14, 3.749399456654634440E-33, 5.000000000000000000 ) ) ;
#69 = DIRECTION ( 'NONE',  ( 0.0000000000000000000, 1.000000000000000000, 0.0000000000000000000 ) ) ;
#70 = CONICAL_SURFACE ( 'NONE', #220, 1.200000000000003286, 0.7853981633974453924 ) ;
#71 = AXIS2_PLACEMENT_3D ( 'NONE', #148, #8, #106 ) ;
#72 = DIRECTION ( 'NONE',  ( 0.0000000000000000000, 1.000000000000000000, 0.0000000000000000000 ) ) ;
#73 = CARTESIAN_POINT ( 'NONE',  ( 5.631697683309561963E-14, 1.499999999999995559, 16.12982323765066539 ) ) ;
#74 = ADVANCED_FACE ( 'NONE', ( #166, #163 ), #286, .T. ) ;
#75 = CARTESIAN_POINT ( 'NONE',  ( 6.982962677686267697E-16, 0.4999999999999993339, 0.2000000000000000111 ) ) ;
#76 = CYLINDRICAL_SURFACE ( 'NONE', #28, 0.4999999999999996669 ) ;
#77 = DIRECTION ( 'NONE',  ( 4.275831445896957731E-31, 1.000000000000000000, 1.224646799147353207E-16 ) ) ;
#78 = DIRECTION ( 'NONE',  ( 4.275831445896958607E-31, 1.000000000000000000, 1.224646799147353207E-16 ) ) ;
#79 = CIRCLE ( 'NONE', #250, 0.4499999999999993450 ) ;
#80 = CC_DESIGN_APPROVAL ( #265, ( #12 ) ) ;
#81 = CALENDAR_DATE ( 2021, 1, 12 ) ;
#82 = EDGE_LOOP ( 'NONE', ( #247 ) ) ;
#83 = SECURITY_CLASSIFICATION_LEVEL ( 'unclassified' ) ;
#84 = APPLICATION_PROTOCOL_DEFINITION ( 'international standard', 'config_control_design', 1994, #196 ) ;
#85 = EDGE_CURVE ( 'NONE', #98, #98, #79, .T. ) ;
#86 = PERSON_AND_ORGANIZATION ( #206, #226 ) ;
#87 = AXIS2_PLACEMENT_3D ( 'NONE', #173, #146, #243 ) ;
#88 = AXIS2_PLACEMENT_3D ( 'NONE', #151, #289, #199 ) ;
#89 = EDGE_LOOP ( 'NONE', ( #185 ) ) ;
#90 = APPROVAL_STATUS ( 'not_yet_approved' ) ;
#91 = ORIENTED_EDGE ( 'NONE', *, *, #52, .T. ) ;
#92 = FACE_BOUND ( 'NONE', #213, .T. ) ;
#93 = EDGE_LOOP ( 'NONE', ( #160 ) ) ;
#94 = LOCAL_TIME ( 11, 39, 51.00000000000000000, #40 ) ;
#95 = FACE_BOUND ( 'NONE', #67, .T. ) ;
#96 = EDGE_LOOP ( 'NONE', ( #277 ) ) ;
#97 = TOROIDAL_SURFACE ( 'NONE', #46, 2.449999999999999734, 2.000000000000000444 ) ;
#98 = VERTEX_POINT ( 'NONE', #100 ) ;
#99 = EDGE_CURVE ( 'NONE', #195, #195, #60, .T. ) ;
#100 = CARTESIAN_POINT ( 'NONE',  ( 1.775977784784342036E-14, 0.4499999999999987343, 5.086602540378446058 ) ) ;
#101 = APPLICATION_CONTEXT ( 'configuration controlled 3d designs of mechanical parts and assemblies' ) ;
#102 = CARTESIAN_POINT ( 'NONE',  ( 1.745740669421566678E-14, -6.123233995736766282E-16, 5.000000000000000000 ) ) ;
#103 = AXIS2_PLACEMENT_3D ( 'NONE', #125, #303, #212 ) ;
#104 = AXIS2_PLACEMENT_3D ( 'NONE', #296, #230, #301 ) ;
#105 = MANIFOLD_SOLID_BREP ( 'Corps-Déplacer/Copier1[2]', #232 ) ;
#106 = DIRECTION ( 'NONE',  ( 0.0000000000000000000, 1.000000000000000000, 0.0000000000000000000 ) ) ;
#107 = MANIFOLD_SOLID_BREP ( 'Corps-Déplacer/Copier1[1]', #181 ) ;
#108 = AXIS2_PLACEMENT_3D ( 'NONE', #280, #192, #69 ) ;
#109 = PERSON_AND_ORGANIZATION_ROLE ( 'creator' ) ;
#110 = ADVANCED_FACE ( 'NONE', ( #4, #95 ), #300, .T. ) ;
#111 = EDGE_CURVE ( 'NONE', #127, #127, #42, .T. ) ;
#112 = COORDINATED_UNIVERSAL_TIME_OFFSET ( 1, 0, .AHEAD. ) ;
#113 = DATE_AND_TIME ( #137, #262 ) ;
#114 = EDGE_LOOP ( 'NONE', ( #45 ) ) ;
#115 = PERSON_AND_ORGANIZATION ( #206, #226 ) ;
#116 = CIRCLE ( 'NONE', #71, 0.4499999999999998446 ) ;
#117 = ORIENTED_EDGE ( 'NONE', *, *, #52, .F. ) ;
#118 = EDGE_LOOP ( 'NONE', ( #257 ) ) ;
#119 = CARTESIAN_POINT ( 'NONE',  ( 3.491481338843133355E-14, -1.301042606982605321E-15, 10.00000000000000000 ) ) ;
#120 = DIRECTION ( 'NONE',  ( -3.491481338843133355E-15, 1.224646799147353207E-16, -1.000000000000000000 ) ) ;
#121 = AXIS2_PLACEMENT_3D ( 'NONE', #191, #285, #186 ) ;
#122 = ADVANCED_FACE ( 'NONE', ( #259, #263 ), #239, .T. ) ;
#123 = DIRECTION ( 'NONE',  ( 0.0000000000000000000, 1.000000000000000000, 0.0000000000000000000 ) ) ;
#124 = EDGE_LOOP ( 'NONE', ( #302 ) ) ;
#125 = CARTESIAN_POINT ( 'NONE',  ( 0.0000000000000000000, 0.0000000000000000000, 0.0000000000000000000 ) ) ;
#126 = EDGE_CURVE ( 'NONE', #244, #244, #147, .T. ) ;
#127 = VERTEX_POINT ( 'NONE', #291 ) ;
#128 = CARTESIAN_POINT ( 'NONE',  ( 3.612739213212769742E-14, 0.4803844939755793630, 10.34729635533384773 ) ) ;
#129 = CARTESIAN_POINT ( 'NONE',  ( 3.491481338843133355E-14, 0.4499999999999985678, 10.00000000000000000 ) ) ;
#130 = FACE_OUTER_BOUND ( 'NONE', #256, .T. ) ;
#131 = COORDINATED_UNIVERSAL_TIME_OFFSET ( 1, 0, .AHEAD. ) ;
#132 = SHAPE_DEFINITION_REPRESENTATION ( #141, #222 ) ;
#133 = ORIENTED_EDGE ( 'NONE', *, *, #217, .F. ) ;
#134 = PRODUCT_DEFINITION_FORMATION_WITH_SPECIFIED_SOURCE ( 'ANY', '', #179, .NOT_KNOWN. ) ;
#135 =( NAMED_UNIT ( * ) PLANE_ANGLE_UNIT ( ) SI_UNIT ( $, .RADIAN. ) );
#136 = PERSON_AND_ORGANIZATION ( #206, #226 ) ;
#137 = CALENDAR_DATE ( 2021, 1, 12 ) ;
#138 = EDGE_LOOP ( 'NONE', ( #207 ) ) ;
#139 = DIRECTION ( 'NONE',  ( -3.491481338843133355E-15, 1.224646799147353207E-16, -1.000000000000000000 ) ) ;
#140 = DIRECTION ( 'NONE',  ( 0.0000000000000000000, 1.000000000000000000, 0.0000000000000000000 ) ) ;
#141 = PRODUCT_DEFINITION_SHAPE ( 'NONE', 'NONE',  #23 ) ;
#142 = CIRCLE ( 'NONE', #87, 0.3845299461620759751 ) ;
#143 = FACE_OUTER_BOUND ( 'NONE', #89, .T. ) ;
#144 = FACE_OUTER_BOUND ( 'NONE', #82, .T. ) ;
#145 = DIRECTION ( 'NONE',  ( 0.0000000000000000000, 1.000000000000000000, 0.0000000000000000000 ) ) ;
#146 = DIRECTION ( 'NONE',  ( -3.491481338843133355E-15, 1.224646799147353207E-16, -1.000000000000000000 ) ) ;
#147 = CIRCLE ( 'NONE', #108, 0.4803844939755805843 ) ;
#148 = CARTESIAN_POINT ( 'NONE',  ( 3.491481338843133355E-14, -1.224646799147353256E-15, 10.00000000000000000 ) ) ;
#149 = PLANE ( 'NONE',  #176 ) ;
#150 = ADVANCED_FACE ( 'NONE', ( #92, #144 ), #158, .T. ) ;
#151 = CARTESIAN_POINT ( 'NONE',  ( 1.316288464743861212E-13, -4.616918432785521081E-15, 37.69999999999999574 ) ) ;
#152 = AXIS2_PLACEMENT_3D ( 'NONE', #271, #53, #7 ) ;
#153 = VERTEX_POINT ( 'NONE', #215 ) ;
#154 = PRODUCT_RELATED_PRODUCT_CATEGORY ( 'detail', '', ( #179 ) ) ;
#155 = DATE_AND_TIME ( #273, #162 ) ;
#156 = ORIENTED_EDGE ( 'NONE', *, *, #111, .T. ) ;
#157 = APPROVAL_DATE_TIME ( #59, #15 ) ;
#158 = CONICAL_SURFACE ( 'NONE', #261, 0.4999999999999993339, 0.5235987755982921543 ) ;
#159 = DATE_AND_TIME ( #81, #21 ) ;
#160 = ORIENTED_EDGE ( 'NONE', *, *, #99, .T. ) ;
#161 = ORIENTED_EDGE ( 'NONE', *, *, #242, .F. ) ;
#162 = LOCAL_TIME ( 11, 39, 51.00000000000000000, #131 ) ;
#163 = FACE_OUTER_BOUND ( 'NONE', #93, .T. ) ;
#164 = PLANE ( 'NONE',  #189 ) ;
#165 = DIRECTION ( 'NONE',  ( -3.491481338843133355E-15, 1.224646799147353207E-16, -1.000000000000000000 ) ) ;
#166 = FACE_BOUND ( 'NONE', #57, .T. ) ;
#167 = CARTESIAN_POINT ( 'NONE',  ( 1.326762908760390423E-13, -4.653657836759941941E-15, 38.00000000000000000 ) ) ;
#168 = DIRECTION ( 'NONE',  ( 3.851859888774476961E-31, 1.000000000000000000, 1.084202172485505913E-16 ) ) ;
#169 = DIRECTION ( 'NONE',  ( -4.275831445896958607E-31, -1.000000000000000000, -1.224646799147353207E-16 ) ) ;
#170 = DIRECTION ( 'NONE',  ( -3.491481338843133355E-15, 1.224646799147353207E-16, -1.000000000000000000 ) ) ;
#171 = ADVANCED_FACE ( 'NONE', ( #130, #290 ), #76, .T. ) ;
#172 = PLANE ( 'NONE',  #152 ) ;
#173 = CARTESIAN_POINT ( 'NONE',  ( -1.644185235688869001E-31, 5.767025484830108636E-33, -4.709133677436904283E-17 ) ) ;
#174 = AXIS2_PLACEMENT_3D ( 'NONE', #167, #193, #72 ) ;
#175 = CC_DESIGN_PERSON_AND_ORGANIZATION_ASSIGNMENT ( #14, #227, ( #12 ) ) ;
#176 = AXIS2_PLACEMENT_3D ( 'NONE', #56, #54, #169 ) ;
#177 = PERSON_AND_ORGANIZATION_ROLE ( 'creator' ) ;
#178 = ORIENTED_EDGE ( 'NONE', *, *, #242, .T. ) ;
#179 = PRODUCT ( '200732', '200732', '', ( #274 ) ) ;
#180 = CALENDAR_DATE ( 2021, 1, 12 ) ;
#181 = CLOSED_SHELL ( 'NONE', ( #63, #110, #122, #51, #74, #228, #208, #9 ) ) ;
#182 = DATE_TIME_ROLE ( 'creation_date' ) ;
#183 = EDGE_LOOP ( 'NONE', ( #178 ) ) ;
#184 = PERSON_AND_ORGANIZATION ( #206, #226 ) ;
#185 = ORIENTED_EDGE ( 'NONE', *, *, #126, .T. ) ;
#186 = DIRECTION ( 'NONE',  ( 0.0000000000000000000, 1.000000000000000000, 0.0000000000000000000 ) ) ;
#187 = EDGE_CURVE ( 'NONE', #245, #245, #201, .T. ) ;
#188 = EDGE_CURVE ( 'NONE', #194, #194, #281, .T. ) ;
#189 = AXIS2_PLACEMENT_3D ( 'NONE', #68, #264, #235 ) ;
#190 = EDGE_LOOP ( 'NONE', ( #24 ) ) ;
#191 = CARTESIAN_POINT ( 'NONE',  ( 1.775977784784342036E-14, -6.229291519609259858E-16, 5.086602540378446058 ) ) ;
#192 = DIRECTION ( 'NONE',  ( -3.491481338843133355E-15, 1.224646799147353207E-16, -1.000000000000000000 ) ) ;
#193 = DIRECTION ( 'NONE',  ( -3.491481338843133355E-15, 1.224646799147353207E-16, -1.000000000000000000 ) ) ;
#194 = VERTEX_POINT ( 'NONE', #75 ) ;
#195 = VERTEX_POINT ( 'NONE', #73 ) ;
#196 = APPLICATION_CONTEXT ( 'configuration controlled 3d designs of mechanical parts and assemblies' ) ;
#197 = DIRECTION ( 'NONE',  ( -3.491481338843133355E-15, 1.224646799147353207E-16, -1.000000000000000000 ) ) ;
#198 = AXIS2_PLACEMENT_3D ( 'NONE', #219, #49, #168 ) ;
#199 = DIRECTION ( 'NONE',  ( 0.0000000000000000000, 1.000000000000000000, 0.0000000000000000000 ) ) ;
#200 = UNCERTAINTY_MEASURE_WITH_UNIT (LENGTH_MEASURE( 1.000000000000000082E-05 ), #203, 'distance_accuracy_value', 'NONE');
#201 = CIRCLE ( 'NONE', #240, 0.5000000000000000000 ) ;
#202 = APPROVAL_DATE_TIME ( #279, #204 ) ;
#203 =( LENGTH_UNIT ( ) NAMED_UNIT ( * ) SI_UNIT ( .MILLI., .METRE. ) );
#204 = APPROVAL ( #90, 'UNSPECIFIED' ) ;
#205 = DATE_TIME_ROLE ( 'classification_date' ) ;
#206 = PERSON ( 'UNSPECIFIED', 'UNSPECIFIED', 'UNSPECIFIED', ('UNSPECIFIED'), ('UNSPECIFIED'), ('UNSPECIFIED') ) ;
#207 = ORIENTED_EDGE ( 'NONE', *, *, #275, .T. ) ;
#208 = ADVANCED_FACE ( 'NONE', ( #267, #6 ), #70, .T. ) ;
#209 = CARTESIAN_POINT ( 'NONE',  ( 1.775977784784342036E-14, -6.229291519609259858E-16, 5.086602540378446058 ) ) ;
#210 = CC_DESIGN_APPROVAL ( #15, ( #134 ) ) ;
#211 = PLANE ( 'NONE',  #236 ) ;
#212 = DIRECTION ( 'NONE',  ( 4.275831445896958607E-31, 1.000000000000000000, 1.224646799147353207E-16 ) ) ;
#213 = EDGE_LOOP ( 'NONE', ( #133 ) ) ;
#214 = AXIS2_PLACEMENT_3D ( 'NONE', #47, #165, #123 ) ;
#215 = CARTESIAN_POINT ( 'NONE',  ( 1.326762908760390423E-13, 1.199999999999998845, 38.00000000000000000 ) ) ;
#216 = VERTEX_POINT ( 'NONE', #241 ) ;
#217 = EDGE_CURVE ( 'NONE', #34, #34, #142, .T. ) ;
#218 = CARTESIAN_POINT ( 'NONE',  ( 0.0000000000000000000, 0.0000000000000000000, 0.0000000000000000000 ) ) ;
#219 = CARTESIAN_POINT ( 'NONE',  ( 6.982962677686265724E-16, -2.449293598294705921E-17, 0.1999999999999999556 ) ) ;
#220 = AXIS2_PLACEMENT_3D ( 'NONE', #292, #170, #29 ) ;
#221 =( GEOMETRIC_REPRESENTATION_CONTEXT ( 3 ) GLOBAL_UNCERTAINTY_ASSIGNED_CONTEXT ( ( #200 ) ) GLOBAL_UNIT_ASSIGNED_CONTEXT ( ( #203, #135, #58 ) ) REPRESENTATION_CONTEXT ( 'NONE', 'WORKASPACE' ) );
#222 = ADVANCED_BREP_SHAPE_REPRESENTATION ( '200732', ( #107, #105, #104 ), #221 ) ;
#223 = CARTESIAN_POINT ( 'NONE',  ( 0.0000000000000000000, 0.3845299461620759751, 0.0000000000000000000 ) ) ;
#224 = PERSON_AND_ORGANIZATION_ROLE ( 'design_owner' ) ;
#225 = EDGE_LOOP ( 'NONE', ( #117 ) ) ;
#226 = ORGANIZATION ( 'UNSPECIFIED', 'UNSPECIFIED', '' ) ;
#227 = PERSON_AND_ORGANIZATION_ROLE ( 'classification_officer' ) ;
#228 = ADVANCED_FACE ( 'NONE', ( #270, #246 ), #50, .T. ) ;
#229 = ADVANCED_FACE ( 'NONE', ( #36 ), #172, .F. ) ;
#230 = DIRECTION ( 'NONE',  ( 0.0000000000000000000, 0.0000000000000000000, 1.000000000000000000 ) ) ;
#231 = COORDINATED_UNIVERSAL_TIME_OFFSET ( 1, 0, .AHEAD. ) ;
#232 = CLOSED_SHELL ( 'NONE', ( #229, #150, #171, #260 ) ) ;
#233 = CC_DESIGN_PERSON_AND_ORGANIZATION_ASSIGNMENT ( #115, #298, ( #134 ) ) ;
#234 = DIRECTION ( 'NONE',  ( 3.491481338843133355E-15, -1.224646799147353207E-16, 1.000000000000000000 ) ) ;
#235 = DIRECTION ( 'NONE',  ( -4.275831445896958607E-31, -1.000000000000000000, -1.224646799147353207E-16 ) ) ;
#236 = AXIS2_PLACEMENT_3D ( 'NONE', #25, #27, #44 ) ;
#237 = APPROVAL_PERSON_ORGANIZATION ( #86, #265, #255 ) ;
#238 = CARTESIAN_POINT ( 'NONE',  ( 6.982962677686265724E-16, -2.449293598294705921E-17, 0.1999999999999999556 ) ) ;
#239 = CYLINDRICAL_SURFACE ( 'NONE', #103, 0.4499999999999995670 ) ;
#240 = AXIS2_PLACEMENT_3D ( 'NONE', #102, #197, #13 ) ;
#241 = CARTESIAN_POINT ( 'NONE',  ( 1.316288464743861212E-13, 1.499999999999998668, 37.69999999999999574 ) ) ;
#242 = EDGE_CURVE ( 'NONE', #32, #32, #116, .T. ) ;
#243 = DIRECTION ( 'NONE',  ( 4.275831445896958607E-31, 1.000000000000000000, 1.224646799147353207E-16 ) ) ;
#244 = VERTEX_POINT ( 'NONE', #128 ) ;
#245 = VERTEX_POINT ( 'NONE', #266 ) ;
#246 = FACE_OUTER_BOUND ( 'NONE', #138, .T. ) ;
#247 = ORIENTED_EDGE ( 'NONE', *, *, #188, .T. ) ;
#248 = ORIENTED_EDGE ( 'NONE', *, *, #188, .F. ) ;
#249 = CC_DESIGN_DATE_AND_TIME_ASSIGNMENT ( #113, #205, ( #12 ) ) ;
#250 = AXIS2_PLACEMENT_3D ( 'NONE', #209, #43, #145 ) ;
#251 = CC_DESIGN_SECURITY_CLASSIFICATION ( #12, ( #134 ) ) ;
#252 = APPLICATION_PROTOCOL_DEFINITION ( 'international standard', 'config_control_design', 1994, #101 ) ;
#253 = ORIENTED_EDGE ( 'NONE', *, *, #85, .T. ) ;
#254 = APPROVAL_ROLE ( '' ) ;
#255 = APPROVAL_ROLE ( '' ) ;
#256 = EDGE_LOOP ( 'NONE', ( #248 ) ) ;
#257 = ORIENTED_EDGE ( 'NONE', *, *, #111, .F. ) ;
#258 = CARTESIAN_POINT ( 'NONE',  ( 5.631697683309561963E-14, -1.975333639880148194E-15, 16.12982323765066539 ) ) ;
#259 = FACE_OUTER_BOUND ( 'NONE', #124, .T. ) ;
#260 = ADVANCED_FACE ( 'NONE', ( #30 ), #149, .T. ) ;
#261 = AXIS2_PLACEMENT_3D ( 'NONE', #238, #26, #66 ) ;
#262 = LOCAL_TIME ( 11, 39, 51.00000000000000000, #17 ) ;
#263 = FACE_OUTER_BOUND ( 'NONE', #183, .T. ) ;
#264 = DIRECTION ( 'NONE',  ( 3.491481338843133355E-15, -1.224646799147353207E-16, 1.000000000000000000 ) ) ;
#265 = APPROVAL ( #64, 'UNSPECIFIED' ) ;
#266 = CARTESIAN_POINT ( 'NONE',  ( 1.745740669421566678E-14, 0.4999999999999993339, 5.000000000000000000 ) ) ;
#267 = FACE_OUTER_BOUND ( 'NONE', #114, .T. ) ;
#268 = AXIS2_PLACEMENT_3D ( 'NONE', #218, #11, #78 ) ;
#269 = CARTESIAN_POINT ( 'NONE',  ( 0.0000000000000000000, 0.0000000000000000000, 0.0000000000000000000 ) ) ;
#270 = FACE_OUTER_BOUND ( 'NONE', #3, .T. ) ;
#271 = CARTESIAN_POINT ( 'NONE',  ( -8.220926178444345004E-32, 2.883512742415054318E-33, -2.354566838718452142E-17 ) ) ;
#272 = LOCAL_TIME ( 11, 39, 51.00000000000000000, #112 ) ;
#273 = CALENDAR_DATE ( 2021, 1, 12 ) ;
#274 = MECHANICAL_CONTEXT ( 'NONE', #101, 'mechanical' ) ;
#275 = EDGE_CURVE ( 'NONE', #216, #216, #55, .T. ) ;
#276 = PERSON_AND_ORGANIZATION ( #206, #226 ) ;
#277 = ORIENTED_EDGE ( 'NONE', *, *, #217, .T. ) ;
#278 = EDGE_LOOP ( 'NONE', ( #161 ) ) ;
#279 = DATE_AND_TIME ( #180, #94 ) ;
#280 = CARTESIAN_POINT ( 'NONE',  ( 3.612739213212769742E-14, -1.267178336138866969E-15, 10.34729635533384773 ) ) ;
#281 = CIRCLE ( 'NONE', #198, 0.4999999999999993339 ) ;
#282 = FACE_OUTER_BOUND ( 'NONE', #299, .T. ) ;
#283 = EDGE_LOOP ( 'NONE', ( #156 ) ) ;
#284 = CC_DESIGN_PERSON_AND_ORGANIZATION_ASSIGNMENT ( #184, #224, ( #179 ) ) ;
#285 = DIRECTION ( 'NONE',  ( -3.491481338843133355E-15, 1.224646799147353207E-16, -1.000000000000000000 ) ) ;
#286 = CONICAL_SURFACE ( 'NONE', #293, 1.499999999999997335, 0.1745329251994261477 ) ;
#287 = FACE_OUTER_BOUND ( 'NONE', #225, .T. ) ;
#288 = DIRECTION ( 'NONE',  ( -3.491481338843133355E-15, 1.224646799147353207E-16, -1.000000000000000000 ) ) ;
#289 = DIRECTION ( 'NONE',  ( -3.491481338843133355E-15, 1.224646799147353207E-16, -1.000000000000000000 ) ) ;
#290 = FACE_OUTER_BOUND ( 'NONE', #283, .T. ) ;
#291 = CARTESIAN_POINT ( 'NONE',  ( 1.745740669421566678E-14, 0.4999999999999993339, 5.000000000000000000 ) ) ;
#292 = CARTESIAN_POINT ( 'NONE',  ( 1.326762908760390423E-13, -4.653657836759941941E-15, 38.00000000000000000 ) ) ;
#293 = AXIS2_PLACEMENT_3D ( 'NONE', #258, #234, #48 ) ;
#294 = APPROVAL_PERSON_ORGANIZATION ( #38, #204, #254 ) ;
#295 = APPROVAL_ROLE ( '' ) ;
#296 = CARTESIAN_POINT ( 'NONE',  ( 0.0000000000000000000, 0.0000000000000000000, 0.0000000000000000000 ) ) ;
#297 = ORIENTED_EDGE ( 'NONE', *, *, #187, .T. ) ;
#298 = PERSON_AND_ORGANIZATION_ROLE ( 'design_supplier' ) ;
#299 = EDGE_LOOP ( 'NONE', ( #297 ) ) ;
#300 = CONICAL_SURFACE ( 'NONE', #121, 0.4499999999999993450, 0.5235987755982948189 ) ;
#301 = DIRECTION ( 'NONE',  ( 1.000000000000000000, 0.0000000000000000000, 0.0000000000000000000 ) ) ;
#302 = ORIENTED_EDGE ( 'NONE', *, *, #85, .F. ) ;
#303 = DIRECTION ( 'NONE',  ( -3.491481338843133355E-15, 1.224646799147353207E-16, -1.000000000000000000 ) ) ;
ENDSEC;
END-ISO-10303-21;
