ISO-10303-21;
HEADER;
FILE_DESCRIPTION (( 'STEP AP203' ),
    '1' );
FILE_NAME ('200731.step',
    '2021-12-01T10:39:50',
    ( '' ),
    ( '' ),
    'SwSTEP 2.0',
    'SolidWorks 2019',
    '' );
FILE_SCHEMA (( 'CONFIG_CONTROL_DESIGN' ));
ENDSEC;

DATA;
#1 = APPROVAL_ROLE ( '' ) ;
#2 = PRODUCT_RELATED_PRODUCT_CATEGORY ( 'detail', '', ( #112 ) ) ;
#3 = VERTEX_POINT ( 'NONE', #76 ) ;
#4 = PERSON_AND_ORGANIZATION_ROLE ( 'design_owner' ) ;
#5 = ORIENTED_EDGE ( 'NONE', *, *, #54, .T. ) ;
#6 = CARTESIAN_POINT ( 'NONE',  ( 5.661399445270336000E-14, 1.499999999999995559, 16.21489246494493131 ) ) ;
#7 = DIRECTION ( 'NONE',  ( 0.0000000000000000000, 1.000000000000000000, 0.0000000000000000000 ) ) ;
#8 = AXIS2_PLACEMENT_3D ( 'NONE', #33, #95, #7 ) ;
#9 = APPROVAL ( #96, 'UNSPECIFIED' ) ;
#10 = CC_DESIGN_APPROVAL ( #69, ( #275 ) ) ;
#11 = EDGE_LOOP ( 'NONE', ( #251 ) ) ;
#12 = DIRECTION ( 'NONE',  ( 3.970989576056161120E-31, 1.000000000000000000, 1.117734198438665694E-16 ) ) ;
#13 = DIRECTION ( 'NONE',  ( 0.0000000000000000000, 1.000000000000000000, 0.0000000000000000000 ) ) ;
#14 = CONICAL_SURFACE ( 'NONE', #8, 0.4349999999999993316, 0.5235987755982943748 ) ;
#15 = DIRECTION ( 'NONE',  ( 0.0000000000000000000, 1.000000000000000000, 0.0000000000000000000 ) ) ;
#16 = FACE_OUTER_BOUND ( 'NONE', #122, .T. ) ;
#17 = FACE_OUTER_BOUND ( 'NONE', #11, .T. ) ;
#18 = EDGE_LOOP ( 'NONE', ( #115 ) ) ;
#19 = CIRCLE ( 'NONE', #203, 0.4849999999999993761 ) ;
#20 = DIRECTION ( 'NONE',  ( 4.275831445896958607E-31, 1.000000000000000000, 1.224646799147353207E-16 ) ) ;
#21 = ORIENTED_EDGE ( 'NONE', *, *, #297, .F. ) ;
#22 = CARTESIAN_POINT ( 'NONE',  ( 0.0000000000000000000, 0.0000000000000000000, 0.0000000000000000000 ) ) ;
#23 = CARTESIAN_POINT ( 'NONE',  ( 1.316288464743861212E-13, 1.499999999999998668, 37.69999999999999574 ) ) ;
#24 = ADVANCED_FACE ( 'NONE', ( #28, #34 ), #62, .F. ) ;
#25 = PERSON_AND_ORGANIZATION_ROLE ( 'creator' ) ;
#26 = EDGE_LOOP ( 'NONE', ( #5 ) ) ;
#27 = PERSON_AND_ORGANIZATION_ROLE ( 'creator' ) ;
#28 = FACE_OUTER_BOUND ( 'NONE', #102, .T. ) ;
#29 = APPROVAL_ROLE ( '' ) ;
#30 = APPROVAL_DATE_TIME ( #243, #69 ) ;
#31 = ORIENTED_EDGE ( 'NONE', *, *, #208, .F. ) ;
#32 = AXIS2_PLACEMENT_3D ( 'NONE', #149, #98, #295 ) ;
#33 = CARTESIAN_POINT ( 'NONE',  ( 1.775977784784342036E-14, -6.229291519609259858E-16, 5.086602540378446058 ) ) ;
#34 = FACE_OUTER_BOUND ( 'NONE', #26, .T. ) ;
#35 = DIRECTION ( 'NONE',  ( -3.491481338843133355E-15, 1.224646799147353207E-16, -1.000000000000000000 ) ) ;
#36 = AXIS2_PLACEMENT_3D ( 'NONE', #48, #280, #163 ) ;
#37 = CARTESIAN_POINT ( 'NONE',  ( 6.982962677686267697E-16, 0.4849999999999993761, 0.2000000000000000111 ) ) ;
#38 = DIRECTION ( 'NONE',  ( -4.275831445896958607E-31, -1.000000000000000000, -1.224646799147353207E-16 ) ) ;
#39 = CARTESIAN_POINT ( 'NONE',  ( 5.661399445270336000E-14, -1.985751615571334560E-15, 16.21489246494493131 ) ) ;
#40 = EDGE_LOOP ( 'NONE', ( #260 ) ) ;
#41 = AXIS2_PLACEMENT_3D ( 'NONE', #222, #190, #103 ) ;
#42 = PLANE ( 'NONE',  #210 ) ;
#43 = AXIS2_PLACEMENT_3D ( 'NONE', #300, #153, #156 ) ;
#44 = ADVANCED_FACE ( 'NONE', ( #238 ), #213, .F. ) ;
#45 = VERTEX_POINT ( 'NONE', #160 ) ;
#46 = PERSON_AND_ORGANIZATION_ROLE ( 'design_supplier' ) ;
#47 = ORIENTED_EDGE ( 'NONE', *, *, #284, .T. ) ;
#48 = CARTESIAN_POINT ( 'NONE',  ( 0.0000000000000000000, 0.0000000000000000000, 0.0000000000000000000 ) ) ;
#49 = FACE_OUTER_BOUND ( 'NONE', #67, .T. ) ;
#50 = APPROVAL_DATE_TIME ( #282, #263 ) ;
#51 = DIRECTION ( 'NONE',  ( -4.275831445896958607E-31, -1.000000000000000000, -1.224646799147353207E-16 ) ) ;
#52 = ORIENTED_EDGE ( 'NONE', *, *, #297, .T. ) ;
#53 = CIRCLE ( 'NONE', #41, 0.4849999999999999867 ) ;
#54 = EDGE_CURVE ( 'NONE', #61, #61, #183, .T. ) ;
#55 = ADVANCED_FACE ( 'NONE', ( #193, #293 ), #14, .T. ) ;
#56 = UNCERTAINTY_MEASURE_WITH_UNIT (LENGTH_MEASURE( 1.000000000000000082E-05 ), #254, 'distance_accuracy_value', 'NONE');
#57 = CARTESIAN_POINT ( 'NONE',  ( -3.168399254044168163E-32, 1.111324858511690371E-33, -9.074656131755195416E-18 ) ) ;
#58 = DATE_AND_TIME ( #71, #167 ) ;
#59 = EDGE_LOOP ( 'NONE', ( #31 ) ) ;
#60 = FACE_OUTER_BOUND ( 'NONE', #59, .T. ) ;
#61 = VERTEX_POINT ( 'NONE', #154 ) ;
#62 = TOROIDAL_SURFACE ( 'NONE', #140, 2.435000000000000053, 2.000000000000000444 ) ;
#63 = AXIS2_PLACEMENT_3D ( 'NONE', #198, #175, #269 ) ;
#64 = CARTESIAN_POINT ( 'NONE',  ( 1.316288464743861212E-13, -4.616918432785521081E-15, 37.69999999999999574 ) ) ;
#65 = EDGE_CURVE ( 'NONE', #179, #179, #166, .T. ) ;
#66 = CARTESIAN_POINT ( 'NONE',  ( 1.745740669421566678E-14, 0.4849999999999993761, 5.000000000000000000 ) ) ;
#67 = EDGE_LOOP ( 'NONE', ( #244 ) ) ;
#68 = DIRECTION ( 'NONE',  ( 3.491481338843133355E-15, -1.224646799147353207E-16, 1.000000000000000000 ) ) ;
#69 = APPROVAL ( #194, 'UNSPECIFIED' ) ;
#70 = EDGE_LOOP ( 'NONE', ( #89 ) ) ;
#71 = CALENDAR_DATE ( 2021, 1, 12 ) ;
#72 = APPLICATION_PROTOCOL_DEFINITION ( 'international standard', 'config_control_design', 1994, #283 ) ;
#73 = CALENDAR_DATE ( 2021, 1, 12 ) ;
#74 = CONICAL_SURFACE ( 'NONE', #241, 1.499999999999997335, 0.1745329251994262310 ) ;
#75 = DIRECTION ( 'NONE',  ( 0.0000000000000000000, 1.000000000000000000, 0.0000000000000000000 ) ) ;
#76 = CARTESIAN_POINT ( 'NONE',  ( 3.491481338843133355E-14, 0.4349999999999987765, 10.00000000000000000 ) ) ;
#77 = ORIENTED_EDGE ( 'NONE', *, *, #106, .F. ) ;
#78 = CONICAL_SURFACE ( 'NONE', #204, 0.4849999999999993761, 0.5235987755982927094 ) ;
#79 = EDGE_LOOP ( 'NONE', ( #147 ) ) ;
#80 = APPROVAL_ROLE ( '' ) ;
#81 = CARTESIAN_POINT ( 'NONE',  ( 1.745740669421566678E-14, -6.123233995736766282E-16, 5.000000000000000000 ) ) ;
#82 = CIRCLE ( 'NONE', #146, 0.4349999999999999978 ) ;
#83 = DIRECTION ( 'NONE',  ( -3.970989576056161120E-31, -1.000000000000000000, -1.117734198438665694E-16 ) ) ;
#84 = CARTESIAN_POINT ( 'NONE',  ( 3.491481338843133355E-14, -1.224646799147353256E-15, 10.00000000000000000 ) ) ;
#85 = DIRECTION ( 'NONE',  ( -3.491481338843133355E-15, 1.224646799147353207E-16, -1.000000000000000000 ) ) ;
#86 = CIRCLE ( 'NONE', #97, 1.499999999999997335 ) ;
#87 = CYLINDRICAL_SURFACE ( 'NONE', #43, 0.4349999999999996647 ) ;
#88 = PLANE ( 'NONE',  #63 ) ;
#89 = ORIENTED_EDGE ( 'NONE', *, *, #118, .T. ) ;
#90 =( NAMED_UNIT ( * ) SI_UNIT ( $, .STERADIAN. ) SOLID_ANGLE_UNIT ( ) );
#91 = EDGE_LOOP ( 'NONE', ( #215 ) ) ;
#92 = PERSON_AND_ORGANIZATION ( #205, #117 ) ;
#93 = VERTEX_POINT ( 'NONE', #6 ) ;
#94 = EDGE_LOOP ( 'NONE', ( #52 ) ) ;
#95 = DIRECTION ( 'NONE',  ( -3.491481338843133355E-15, 1.224646799147353207E-16, -1.000000000000000000 ) ) ;
#96 = APPROVAL_STATUS ( 'not_yet_approved' ) ;
#97 = AXIS2_PLACEMENT_3D ( 'NONE', #39, #85, #15 ) ;
#98 = DIRECTION ( 'NONE',  ( -3.491481338843133355E-15, 1.224646799147353207E-16, -1.000000000000000000 ) ) ;
#99 = EDGE_CURVE ( 'NONE', #177, #177, #19, .T. ) ;
#100 = CC_DESIGN_PERSON_AND_ORGANIZATION_ASSIGNMENT ( #234, #46, ( #111 ) ) ;
#101 = CIRCLE ( 'NONE', #281, 1.500000000000003331 ) ;
#102 = EDGE_LOOP ( 'NONE', ( #21 ) ) ;
#103 = DIRECTION ( 'NONE',  ( 0.0000000000000000000, 1.000000000000000000, 0.0000000000000000000 ) ) ;
#104 = DIRECTION ( 'NONE',  ( 0.0000000000000000000, 1.000000000000000000, 0.0000000000000000000 ) ) ;
#105 = DIRECTION ( 'NONE',  ( 3.491481338843133355E-15, -1.224646799147353207E-16, 1.000000000000000000 ) ) ;
#106 = EDGE_CURVE ( 'NONE', #276, #276, #53, .T. ) ;
#107 = CARTESIAN_POINT ( 'NONE',  ( 1.326762908760390423E-13, -4.653657836759941941E-15, 38.00000000000000000 ) ) ;
#108 = DIRECTION ( 'NONE',  ( -3.491481338843133355E-15, 1.224646799147353207E-16, -1.000000000000000000 ) ) ;
#109 = EDGE_LOOP ( 'NONE', ( #119 ) ) ;
#110 = AXIS2_PLACEMENT_3D ( 'NONE', #81, #268, #13 ) ;
#111 = PRODUCT_DEFINITION_FORMATION_WITH_SPECIFIED_SOURCE ( 'ANY', '', #112, .NOT_KNOWN. ) ;
#112 = PRODUCT ( '200731', '200731', '', ( #237 ) ) ;
#113 = DIRECTION ( 'NONE',  ( -3.491481338843133355E-15, 1.224646799147353207E-16, -1.000000000000000000 ) ) ;
#114 = CARTESIAN_POINT ( 'NONE',  ( 6.982962677686265724E-16, -2.449293598294705921E-17, 0.1999999999999999556 ) ) ;
#115 = ORIENTED_EDGE ( 'NONE', *, *, #65, .T. ) ;
#116 = PERSON_AND_ORGANIZATION ( #205, #117 ) ;
#117 = ORGANIZATION ( 'UNSPECIFIED', 'UNSPECIFIED', '' ) ;
#118 = EDGE_CURVE ( 'NONE', #225, #225, #178, .T. ) ;
#119 = ORIENTED_EDGE ( 'NONE', *, *, #270, .T. ) ;
#120 = DATE_AND_TIME ( #73, #267 ) ;
#121 = FACE_OUTER_BOUND ( 'NONE', #91, .T. ) ;
#122 = EDGE_LOOP ( 'NONE', ( #249 ) ) ;
#123 = CALENDAR_DATE ( 2021, 1, 12 ) ;
#124 = CIRCLE ( 'NONE', #110, 0.4849999999999999867 ) ;
#125 = CARTESIAN_POINT ( 'NONE',  ( 3.491481338843133355E-14, -1.301042606982605321E-15, 10.00000000000000000 ) ) ;
#126 = CC_DESIGN_APPROVAL ( #263, ( #111 ) ) ;
#127 = DIRECTION ( 'NONE',  ( -3.491481338843133355E-15, 1.224646799147353207E-16, -1.000000000000000000 ) ) ;
#128 = CARTESIAN_POINT ( 'NONE',  ( 3.612739213212769111E-14, -1.267178336138866772E-15, 10.34729635533384595 ) ) ;
#129 = CC_DESIGN_PERSON_AND_ORGANIZATION_ASSIGNMENT ( #261, #25, ( #111 ) ) ;
#130 = FACE_OUTER_BOUND ( 'NONE', #221, .T. ) ;
#131 = CARTESIAN_POINT ( 'NONE',  ( 5.661399445270336000E-14, -1.985751615571334560E-15, 16.21489246494493131 ) ) ;
#132 = FACE_OUTER_BOUND ( 'NONE', #135, .T. ) ;
#133 = ORIENTED_EDGE ( 'NONE', *, *, #65, .F. ) ;
#134 = CARTESIAN_POINT ( 'NONE',  ( 1.745740669421566678E-14, 0.4849999999999993761, 5.000000000000000000 ) ) ;
#135 = EDGE_LOOP ( 'NONE', ( #195 ) ) ;
#136 = AXIS2_PLACEMENT_3D ( 'NONE', #22, #113, #20 ) ;
#137 = FACE_OUTER_BOUND ( 'NONE', #79, .T. ) ;
#138 = COORDINATED_UNIVERSAL_TIME_OFFSET ( 1, 0, .AHEAD. ) ;
#139 = SECURITY_CLASSIFICATION_LEVEL ( 'unclassified' ) ;
#140 = AXIS2_PLACEMENT_3D ( 'NONE', #125, #127, #290 ) ;
#141 = DATE_AND_TIME ( #123, #155 ) ;
#142 = APPROVAL_PERSON_ORGANIZATION ( #294, #69, #80 ) ;
#143 = CYLINDRICAL_SURFACE ( 'NONE', #189, 0.4849999999999996536 ) ;
#144 = CARTESIAN_POINT ( 'NONE',  ( 1.326762908760390423E-13, 8.998558695971103225E-33, 38.00000000000000000 ) ) ;
#145 = AXIS2_PLACEMENT_3D ( 'NONE', #57, #170, #51 ) ;
#146 = AXIS2_PLACEMENT_3D ( 'NONE', #84, #199, #229 ) ;
#147 = ORIENTED_EDGE ( 'NONE', *, *, #270, .F. ) ;
#148 = CC_DESIGN_DATE_AND_TIME_ASSIGNMENT ( #58, #192, ( #275 ) ) ;
#149 = CARTESIAN_POINT ( 'NONE',  ( -6.336798508088336326E-32, 2.222649717023380743E-33, -1.814931226351039083E-17 ) ) ;
#150 = CIRCLE ( 'NONE', #216, 0.4349999999999993316 ) ;
#151 = EDGE_LOOP ( 'NONE', ( #77 ) ) ;
#152 = EDGE_CURVE ( 'NONE', #250, #250, #124, .T. ) ;
#153 = DIRECTION ( 'NONE',  ( -3.491481338843133355E-15, 1.224646799147353207E-16, -1.000000000000000000 ) ) ;
#154 = CARTESIAN_POINT ( 'NONE',  ( 3.612739213212769111E-14, 0.4653844939755788501, 10.34729635533384595 ) ) ;
#155 = LOCAL_TIME ( 11, 39, 50.00000000000000000, #181 ) ;
#156 = DIRECTION ( 'NONE',  ( 4.275831445896958607E-31, 1.000000000000000000, 1.224646799147353207E-16 ) ) ;
#157 = FACE_BOUND ( 'NONE', #70, .T. ) ;
#158 = FACE_BOUND ( 'NONE', #212, .T. ) ;
#159 = CC_DESIGN_APPROVAL ( #9, ( #298 ) ) ;
#160 = CARTESIAN_POINT ( 'NONE',  ( 1.775977784784342036E-14, 0.4349999999999987765, 5.086602540378446058 ) ) ;
#161 = PERSON_AND_ORGANIZATION ( #205, #117 ) ;
#162 = DIRECTION ( 'NONE',  ( 4.275831445896958607E-31, 1.000000000000000000, 1.224646799147353207E-16 ) ) ;
#163 = DIRECTION ( 'NONE',  ( 1.000000000000000000, 0.0000000000000000000, 0.0000000000000000000 ) ) ;
#164 = PLANE ( 'NONE',  #224 ) ;
#165 = ORIENTED_EDGE ( 'NONE', *, *, #208, .T. ) ;
#166 = CIRCLE ( 'NONE', #32, 0.3695299461620759063 ) ;
#167 = LOCAL_TIME ( 11, 39, 50.00000000000000000, #303 ) ;
#168 = COORDINATED_UNIVERSAL_TIME_OFFSET ( 1, 0, .AHEAD. ) ;
#169 = CALENDAR_DATE ( 2021, 1, 12 ) ;
#170 = DIRECTION ( 'NONE',  ( 3.491481338843133355E-15, -1.224646799147353207E-16, 1.000000000000000000 ) ) ;
#171 = APPLICATION_CONTEXT ( 'configuration controlled 3d designs of mechanical parts and assemblies' ) ;
#172 = ORIENTED_EDGE ( 'NONE', *, *, #106, .T. ) ;
#173 = CLOSED_SHELL ( 'NONE', ( #44, #226, #200, #232 ) ) ;
#174 = ADVANCED_FACE ( 'NONE', ( #121 ), #164, .F. ) ;
#175 = DIRECTION ( 'NONE',  ( 3.491481338843133355E-15, -1.224646799147353207E-16, 1.000000000000000000 ) ) ;
#176 = DIRECTION ( 'NONE',  ( 3.491481338843133355E-15, -1.224646799147353207E-16, 1.000000000000000000 ) ) ;
#177 = VERTEX_POINT ( 'NONE', #37 ) ;
#178 = CIRCLE ( 'NONE', #266, 1.200000000000003286 ) ;
#179 = VERTEX_POINT ( 'NONE', #247 ) ;
#180 = DIRECTION ( 'NONE',  ( -3.491481338843133355E-15, 1.224646799147353207E-16, -1.000000000000000000 ) ) ;
#181 = COORDINATED_UNIVERSAL_TIME_OFFSET ( 1, 0, .AHEAD. ) ;
#182 = CC_DESIGN_PERSON_AND_ORGANIZATION_ASSIGNMENT ( #161, #4, ( #112 ) ) ;
#183 = CIRCLE ( 'NONE', #253, 0.4653844939755801269 ) ;
#184 = COORDINATED_UNIVERSAL_TIME_OFFSET ( 1, 0, .AHEAD. ) ;
#185 = MANIFOLD_SOLID_BREP ( 'Corps-Déplacer/Copier1[1]', #273 ) ;
#186 =( NAMED_UNIT ( * ) PLANE_ANGLE_UNIT ( ) SI_UNIT ( $, .RADIAN. ) );
#187 = PERSON_AND_ORGANIZATION ( #205, #117 ) ;
#188 = CARTESIAN_POINT ( 'NONE',  ( 1.326762908760390423E-13, -4.653657836759941941E-15, 38.00000000000000000 ) ) ;
#189 = AXIS2_PLACEMENT_3D ( 'NONE', #272, #228, #274 ) ;
#190 = DIRECTION ( 'NONE',  ( -3.491481338843133355E-15, 1.224646799147353207E-16, -1.000000000000000000 ) ) ;
#191 = LOCAL_TIME ( 11, 39, 50.00000000000000000, #184 ) ;
#192 = DATE_TIME_ROLE ( 'classification_date' ) ;
#193 = FACE_OUTER_BOUND ( 'NONE', #151, .T. ) ;
#194 = APPROVAL_STATUS ( 'not_yet_approved' ) ;
#195 = ORIENTED_EDGE ( 'NONE', *, *, #284, .F. ) ;
#196 = DIRECTION ( 'NONE',  ( -3.491481338843133355E-15, 1.224646799147353207E-16, -1.000000000000000000 ) ) ;
#197 = CC_DESIGN_SECURITY_CLASSIFICATION ( #275, ( #111 ) ) ;
#198 = CARTESIAN_POINT ( 'NONE',  ( 1.745740669421566678E-14, 3.636917472954995667E-33, 5.000000000000000000 ) ) ;
#199 = DIRECTION ( 'NONE',  ( -3.491481338843133355E-15, 1.224646799147353207E-16, -1.000000000000000000 ) ) ;
#200 = ADVANCED_FACE ( 'NONE', ( #257, #49 ), #143, .T. ) ;
#201 = ADVANCED_FACE ( 'NONE', ( #132, #301 ), #207, .T. ) ;
#202 = FACE_OUTER_BOUND ( 'NONE', #94, .T. ) ;
#203 = AXIS2_PLACEMENT_3D ( 'NONE', #242, #196, #12 ) ;
#204 = AXIS2_PLACEMENT_3D ( 'NONE', #114, #176, #83 ) ;
#205 = PERSON ( 'UNSPECIFIED', 'UNSPECIFIED', 'UNSPECIFIED', ('UNSPECIFIED'), ('UNSPECIFIED'), ('UNSPECIFIED') ) ;
#206 = CARTESIAN_POINT ( 'NONE',  ( 1.745740669421566678E-14, 3.636917472954995667E-33, 5.000000000000000000 ) ) ;
#207 = CYLINDRICAL_SURFACE ( 'NONE', #136, 1.500000000000000444 ) ;
#208 = EDGE_CURVE ( 'NONE', #45, #45, #150, .T. ) ;
#209 = PERSON_AND_ORGANIZATION ( #205, #117 ) ;
#210 = AXIS2_PLACEMENT_3D ( 'NONE', #206, #68, #38 ) ;
#211 = APPROVAL_PERSON_ORGANIZATION ( #209, #9, #1 ) ;
#212 = EDGE_LOOP ( 'NONE', ( #133 ) ) ;
#213 = PLANE ( 'NONE',  #145 ) ;
#214 = CALENDAR_DATE ( 2021, 1, 12 ) ;
#215 = ORIENTED_EDGE ( 'NONE', *, *, #118, .F. ) ;
#216 = AXIS2_PLACEMENT_3D ( 'NONE', #302, #35, #279 ) ;
#217 = APPROVAL_PERSON_ORGANIZATION ( #92, #263, #29 ) ;
#218 = CC_DESIGN_DATE_AND_TIME_ASSIGNMENT ( #120, #286, ( #298 ) ) ;
#219 = CC_DESIGN_PERSON_AND_ORGANIZATION_ASSIGNMENT ( #187, #27, ( #298 ) ) ;
#220 = ADVANCED_BREP_SHAPE_REPRESENTATION ( '200731', ( #185, #292, #36 ), #258 ) ;
#221 = EDGE_LOOP ( 'NONE', ( #47 ) ) ;
#222 = CARTESIAN_POINT ( 'NONE',  ( 1.745740669421566678E-14, -6.123233995736766282E-16, 5.000000000000000000 ) ) ;
#223 = FACE_OUTER_BOUND ( 'NONE', #277, .T. ) ;
#224 = AXIS2_PLACEMENT_3D ( 'NONE', #144, #236, #162 ) ;
#225 = VERTEX_POINT ( 'NONE', #248 ) ;
#226 = ADVANCED_FACE ( 'NONE', ( #158, #17 ), #78, .T. ) ;
#227 = ADVANCED_FACE ( 'NONE', ( #223 ), #42, .F. ) ;
#228 = DIRECTION ( 'NONE',  ( -3.491481338843133355E-15, 1.224646799147353207E-16, -1.000000000000000000 ) ) ;
#229 = DIRECTION ( 'NONE',  ( 0.0000000000000000000, 1.000000000000000000, 0.0000000000000000000 ) ) ;
#230 = CONICAL_SURFACE ( 'NONE', #291, 1.200000000000003286, 0.7853981633974453924 ) ;
#231 = ORIENTED_EDGE ( 'NONE', *, *, #99, .F. ) ;
#232 = ADVANCED_FACE ( 'NONE', ( #16 ), #88, .T. ) ;
#233 = DIRECTION ( 'NONE',  ( 0.0000000000000000000, 1.000000000000000000, 0.0000000000000000000 ) ) ;
#234 = PERSON_AND_ORGANIZATION ( #205, #117 ) ;
#235 = VERTEX_POINT ( 'NONE', #23 ) ;
#236 = DIRECTION ( 'NONE',  ( -3.491481338843133355E-15, 1.224646799147353207E-16, -1.000000000000000000 ) ) ;
#237 = MECHANICAL_CONTEXT ( 'NONE', #283, 'mechanical' ) ;
#238 = FACE_OUTER_BOUND ( 'NONE', #18, .T. ) ;
#239 = PERSON_AND_ORGANIZATION_ROLE ( 'classification_officer' ) ;
#240 = ADVANCED_FACE ( 'NONE', ( #137, #157 ), #230, .T. ) ;
#241 = AXIS2_PLACEMENT_3D ( 'NONE', #131, #105, #299 ) ;
#242 = CARTESIAN_POINT ( 'NONE',  ( 6.982962677686265724E-16, -2.449293598294705921E-17, 0.1999999999999999556 ) ) ;
#243 = DATE_AND_TIME ( #169, #288 ) ;
#244 = ORIENTED_EDGE ( 'NONE', *, *, #152, .T. ) ;
#245 = DESIGN_CONTEXT ( 'detailed design', #171, 'design' ) ;
#246 = FACE_BOUND ( 'NONE', #40, .T. ) ;
#247 = CARTESIAN_POINT ( 'NONE',  ( 9.463679131915805687E-32, 0.3695299461620759063, 2.710505431213761085E-17 ) ) ;
#248 = CARTESIAN_POINT ( 'NONE',  ( 1.326762908760390423E-13, 1.199999999999998845, 38.00000000000000000 ) ) ;
#249 = ORIENTED_EDGE ( 'NONE', *, *, #152, .F. ) ;
#250 = VERTEX_POINT ( 'NONE', #134 ) ;
#251 = ORIENTED_EDGE ( 'NONE', *, *, #99, .T. ) ;
#252 = DIRECTION ( 'NONE',  ( 0.0000000000000000000, 1.000000000000000000, 0.0000000000000000000 ) ) ;
#253 = AXIS2_PLACEMENT_3D ( 'NONE', #128, #296, #104 ) ;
#254 =( LENGTH_UNIT ( ) NAMED_UNIT ( * ) SI_UNIT ( .MILLI., .METRE. ) );
#255 = APPLICATION_PROTOCOL_DEFINITION ( 'international standard', 'config_control_design', 1994, #171 ) ;
#256 = CC_DESIGN_PERSON_AND_ORGANIZATION_ASSIGNMENT ( #116, #239, ( #275 ) ) ;
#257 = FACE_OUTER_BOUND ( 'NONE', #262, .T. ) ;
#258 =( GEOMETRIC_REPRESENTATION_CONTEXT ( 3 ) GLOBAL_UNCERTAINTY_ASSIGNED_CONTEXT ( ( #56 ) ) GLOBAL_UNIT_ASSIGNED_CONTEXT ( ( #254, #186, #90 ) ) REPRESENTATION_CONTEXT ( 'NONE', 'WORKASPACE' ) );
#259 = APPROVAL_STATUS ( 'not_yet_approved' ) ;
#260 = ORIENTED_EDGE ( 'NONE', *, *, #54, .F. ) ;
#261 = PERSON_AND_ORGANIZATION ( #205, #117 ) ;
#262 = EDGE_LOOP ( 'NONE', ( #231 ) ) ;
#263 = APPROVAL ( #259, 'UNSPECIFIED' ) ;
#264 = EDGE_LOOP ( 'NONE', ( #165 ) ) ;
#265 = SHAPE_DEFINITION_REPRESENTATION ( #278, #220 ) ;
#266 = AXIS2_PLACEMENT_3D ( 'NONE', #188, #287, #75 ) ;
#267 = LOCAL_TIME ( 11, 39, 50.00000000000000000, #138 ) ;
#268 = DIRECTION ( 'NONE',  ( -3.491481338843133355E-15, 1.224646799147353207E-16, -1.000000000000000000 ) ) ;
#269 = DIRECTION ( 'NONE',  ( -4.275831445896958607E-31, -1.000000000000000000, -1.224646799147353207E-16 ) ) ;
#270 = EDGE_CURVE ( 'NONE', #235, #235, #101, .T. ) ;
#271 = ADVANCED_FACE ( 'NONE', ( #60, #202 ), #87, .T. ) ;
#272 = CARTESIAN_POINT ( 'NONE',  ( 0.0000000000000000000, 0.0000000000000000000, 0.0000000000000000000 ) ) ;
#273 = CLOSED_SHELL ( 'NONE', ( #227, #55, #271, #24, #285, #201, #240, #174 ) ) ;
#274 = DIRECTION ( 'NONE',  ( 4.275831445896958607E-31, 1.000000000000000000, 1.224646799147353207E-16 ) ) ;
#275 = SECURITY_CLASSIFICATION ( '', '', #139 ) ;
#276 = VERTEX_POINT ( 'NONE', #66 ) ;
#277 = EDGE_LOOP ( 'NONE', ( #172 ) ) ;
#278 = PRODUCT_DEFINITION_SHAPE ( 'NONE', 'NONE',  #298 ) ;
#279 = DIRECTION ( 'NONE',  ( 0.0000000000000000000, 1.000000000000000000, 0.0000000000000000000 ) ) ;
#280 = DIRECTION ( 'NONE',  ( 0.0000000000000000000, 0.0000000000000000000, 1.000000000000000000 ) ) ;
#281 = AXIS2_PLACEMENT_3D ( 'NONE', #64, #108, #233 ) ;
#282 = DATE_AND_TIME ( #214, #191 ) ;
#283 = APPLICATION_CONTEXT ( 'configuration controlled 3d designs of mechanical parts and assemblies' ) ;
#284 = EDGE_CURVE ( 'NONE', #93, #93, #86, .T. ) ;
#285 = ADVANCED_FACE ( 'NONE', ( #246, #130 ), #74, .T. ) ;
#286 = DATE_TIME_ROLE ( 'creation_date' ) ;
#287 = DIRECTION ( 'NONE',  ( -3.491481338843133355E-15, 1.224646799147353207E-16, -1.000000000000000000 ) ) ;
#288 = LOCAL_TIME ( 11, 39, 50.00000000000000000, #168 ) ;
#289 = APPROVAL_DATE_TIME ( #141, #9 ) ;
#290 = DIRECTION ( 'NONE',  ( 4.275831445896959482E-31, 1.000000000000000000, 1.224646799147353207E-16 ) ) ;
#291 = AXIS2_PLACEMENT_3D ( 'NONE', #107, #180, #252 ) ;
#292 = MANIFOLD_SOLID_BREP ( 'Corps-Déplacer/Copier1[2]', #173 ) ;
#293 = FACE_BOUND ( 'NONE', #264, .T. ) ;
#294 = PERSON_AND_ORGANIZATION ( #205, #117 ) ;
#295 = DIRECTION ( 'NONE',  ( 4.275831445896958607E-31, 1.000000000000000000, 1.224646799147353207E-16 ) ) ;
#296 = DIRECTION ( 'NONE',  ( -3.491481338843133355E-15, 1.224646799147353207E-16, -1.000000000000000000 ) ) ;
#297 = EDGE_CURVE ( 'NONE', #3, #3, #82, .T. ) ;
#298 = PRODUCT_DEFINITION ( 'UNKNOWN', '', #111, #245 ) ;
#299 = DIRECTION ( 'NONE',  ( 0.0000000000000000000, -1.000000000000000000, 0.0000000000000000000 ) ) ;
#300 = CARTESIAN_POINT ( 'NONE',  ( 0.0000000000000000000, 0.0000000000000000000, 0.0000000000000000000 ) ) ;
#301 = FACE_OUTER_BOUND ( 'NONE', #109, .T. ) ;
#302 = CARTESIAN_POINT ( 'NONE',  ( 1.775977784784342036E-14, -6.229291519609259858E-16, 5.086602540378446058 ) ) ;
#303 = COORDINATED_UNIVERSAL_TIME_OFFSET ( 1, 0, .AHEAD. ) ;
ENDSEC;
END-ISO-10303-21;
