ISO-10303-21;
HEADER;
FILE_DESCRIPTION (( 'STEP AP203' ),
    '1' );
FILE_NAME ('200730.step',
    '2021-12-01T10:39:50',
    ( '' ),
    ( '' ),
    'SwSTEP 2.0',
    'SolidWorks 2019',
    '' );
FILE_SCHEMA (( 'CONFIG_CONTROL_DESIGN' ));
ENDSEC;

DATA;
#1 = PLANE ( 'NONE',  #223 ) ;
#2 = CIRCLE ( 'NONE', #85, 0.4300000000000002154 ) ;
#3 = AXIS2_PLACEMENT_3D ( 'NONE', #108, #284, #6 ) ;
#4 = FACE_OUTER_BOUND ( 'NONE', #131, .T. ) ;
#5 = DIRECTION ( 'NONE',  ( -3.491481338843133355E-15, 1.224646799147353207E-16, -1.000000000000000000 ) ) ;
#6 = DIRECTION ( 'NONE',  ( 1.000000000000000000, 0.0000000000000000000, 0.0000000000000000000 ) ) ;
#7 = CONICAL_SURFACE ( 'NONE', #38, 1.499999999999997335, 0.1745329251994262032 ) ;
#8 = CALENDAR_DATE ( 2021, 1, 12 ) ;
#9 = ORIENTED_EDGE ( 'NONE', *, *, #115, .F. ) ;
#10 = CC_DESIGN_PERSON_AND_ORGANIZATION_ASSIGNMENT ( #257, #58, ( #235 ) ) ;
#11 = PRODUCT_RELATED_PRODUCT_CATEGORY ( 'detail', '', ( #235 ) ) ;
#12 = AXIS2_PLACEMENT_3D ( 'NONE', #175, #157, #89 ) ;
#13 = VERTEX_POINT ( 'NONE', #153 ) ;
#14 = FACE_OUTER_BOUND ( 'NONE', #135, .T. ) ;
#15 = MECHANICAL_CONTEXT ( 'NONE', #264, 'mechanical' ) ;
#16 = DIRECTION ( 'NONE',  ( -3.491481338843133355E-15, 1.224646799147353207E-16, -1.000000000000000000 ) ) ;
#17 = DATE_AND_TIME ( #134, #294 ) ;
#18 = EDGE_LOOP ( 'NONE', ( #226 ) ) ;
#19 = PERSON_AND_ORGANIZATION ( #275, #286 ) ;
#20 = DIRECTION ( 'NONE',  ( 0.0000000000000000000, 1.000000000000000000, 0.0000000000000000000 ) ) ;
#21 = ORIENTED_EDGE ( 'NONE', *, *, #228, .F. ) ;
#22 = DATE_TIME_ROLE ( 'classification_date' ) ;
#23 = DIRECTION ( 'NONE',  ( -3.491481338843133355E-15, 1.224646799147353207E-16, -1.000000000000000000 ) ) ;
#24 = CARTESIAN_POINT ( 'NONE',  ( 1.326762908760390423E-13, 8.998558695971103225E-33, 38.00000000000000000 ) ) ;
#25 = DIRECTION ( 'NONE',  ( 4.275831445896958607E-31, 1.000000000000000000, 1.224646799147353207E-16 ) ) ;
#26 = CARTESIAN_POINT ( 'NONE',  ( 5.671300032590595696E-14, -1.989224274135063743E-15, 16.24324887404302231 ) ) ;
#27 = PRODUCT_DEFINITION_FORMATION_WITH_SPECIFIED_SOURCE ( 'ANY', '', #235, .NOT_KNOWN. ) ;
#28 = CARTESIAN_POINT ( 'NONE',  ( 3.612739213212769742E-14, -1.267178336138866969E-15, 10.34729635533384773 ) ) ;
#29 = ADVANCED_FACE ( 'NONE', ( #113, #137 ), #274, .T. ) ;
#30 = PERSON_AND_ORGANIZATION ( #275, #286 ) ;
#31 = APPROVAL_STATUS ( 'not_yet_approved' ) ;
#32 = ORIENTED_EDGE ( 'NONE', *, *, #138, .F. ) ;
#33 = EDGE_CURVE ( 'NONE', #185, #185, #232, .T. ) ;
#34 = AXIS2_PLACEMENT_3D ( 'NONE', #303, #277, #250 ) ;
#35 = EDGE_LOOP ( 'NONE', ( #216 ) ) ;
#36 = PERSON_AND_ORGANIZATION ( #275, #286 ) ;
#37 = CIRCLE ( 'NONE', #127, 1.200000000000003286 ) ;
#38 = AXIS2_PLACEMENT_3D ( 'NONE', #26, #203, #125 ) ;
#39 = FACE_OUTER_BOUND ( 'NONE', #265, .T. ) ;
#40 = VERTEX_POINT ( 'NONE', #287 ) ;
#41 = CARTESIAN_POINT ( 'NONE',  ( 3.491481338843133355E-14, -1.224646799147353256E-15, 10.00000000000000000 ) ) ;
#42 = CARTESIAN_POINT ( 'NONE',  ( 3.612739213212769742E-14, 0.4603844939755788457, 10.34729635533384773 ) ) ;
#43 = EDGE_LOOP ( 'NONE', ( #192 ) ) ;
#44 = FACE_OUTER_BOUND ( 'NONE', #43, .T. ) ;
#45 = CIRCLE ( 'NONE', #205, 0.4603844939755801224 ) ;
#46 = COORDINATED_UNIVERSAL_TIME_OFFSET ( 1, 0, .AHEAD. ) ;
#47 = EDGE_LOOP ( 'NONE', ( #87 ) ) ;
#48 = PERSON_AND_ORGANIZATION_ROLE ( 'design_supplier' ) ;
#49 = DIRECTION ( 'NONE',  ( 0.0000000000000000000, 1.000000000000000000, 0.0000000000000000000 ) ) ;
#50 = FACE_OUTER_BOUND ( 'NONE', #190, .T. ) ;
#51 = CLOSED_SHELL ( 'NONE', ( #278, #243, #105, #236 ) ) ;
#52 = LOCAL_TIME ( 11, 39, 50.00000000000000000, #225 ) ;
#53 = CARTESIAN_POINT ( 'NONE',  ( 1.775977784784342036E-14, -6.229291519609259858E-16, 5.086602540378446058 ) ) ;
#54 = DIRECTION ( 'NONE',  ( -3.491481338843133355E-15, 1.224646799147353207E-16, -1.000000000000000000 ) ) ;
#55 = PLANE ( 'NONE',  #34 ) ;
#56 = AXIS2_PLACEMENT_3D ( 'NONE', #271, #247, #97 ) ;
#57 = VERTEX_POINT ( 'NONE', #148 ) ;
#58 = PERSON_AND_ORGANIZATION_ROLE ( 'design_owner' ) ;
#59 = ADVANCED_FACE ( 'NONE', ( #14 ), #296, .F. ) ;
#60 =( NAMED_UNIT ( * ) SI_UNIT ( $, .STERADIAN. ) SOLID_ANGLE_UNIT ( ) );
#61 = AXIS2_PLACEMENT_3D ( 'NONE', #79, #23, #81 ) ;
#62 = ORIENTED_EDGE ( 'NONE', *, *, #33, .F. ) ;
#63 = ADVANCED_FACE ( 'NONE', ( #39, #74 ), #118, .T. ) ;
#64 = VERTEX_POINT ( 'NONE', #42 ) ;
#65 = CIRCLE ( 'NONE', #142, 0.4299999999999993272 ) ;
#66 = DIRECTION ( 'NONE',  ( 4.275831445896958607E-31, 1.000000000000000000, 1.224646799147353207E-16 ) ) ;
#67 = CARTESIAN_POINT ( 'NONE',  ( 1.316288464743861212E-13, 1.499999999999998668, 37.69999999999999574 ) ) ;
#68 = EDGE_CURVE ( 'NONE', #233, #233, #2, .T. ) ;
#69 = CARTESIAN_POINT ( 'NONE',  ( 0.0000000000000000000, 0.0000000000000000000, 0.0000000000000000000 ) ) ;
#70 = CC_DESIGN_DATE_AND_TIME_ASSIGNMENT ( #123, #22, ( #179 ) ) ;
#71 = CONICAL_SURFACE ( 'NONE', #109, 1.200000000000003286, 0.7853981633974453924 ) ;
#72 = CARTESIAN_POINT ( 'NONE',  ( 0.0000000000000000000, 0.0000000000000000000, 0.0000000000000000000 ) ) ;
#73 = LOCAL_TIME ( 11, 39, 50.00000000000000000, #114 ) ;
#74 = FACE_OUTER_BOUND ( 'NONE', #196, .T. ) ;
#75 = DESIGN_CONTEXT ( 'detailed design', #285, 'design' ) ;
#76 = DIRECTION ( 'NONE',  ( -3.491481338843133355E-15, 1.224646799147353207E-16, -1.000000000000000000 ) ) ;
#77 = FACE_BOUND ( 'NONE', #18, .T. ) ;
#78 = APPROVAL_PERSON_ORGANIZATION ( #36, #170, #149 ) ;
#79 = CARTESIAN_POINT ( 'NONE',  ( 6.982962677686265724E-16, -2.449293598294705921E-17, 0.1999999999999999556 ) ) ;
#80 = ADVANCED_FACE ( 'NONE', ( #44, #219 ), #71, .T. ) ;
#81 = DIRECTION ( 'NONE',  ( 4.012354050806746907E-31, 1.000000000000000000, 1.129377263005735347E-16 ) ) ;
#82 = APPROVAL ( #201, 'UNSPECIFIED' ) ;
#83 = CARTESIAN_POINT ( 'NONE',  ( 6.982962677686265724E-16, -2.449293598294705921E-17, 0.1999999999999999556 ) ) ;
#84 = ORIENTED_EDGE ( 'NONE', *, *, #249, .T. ) ;
#85 = AXIS2_PLACEMENT_3D ( 'NONE', #41, #133, #246 ) ;
#86 = AXIS2_PLACEMENT_3D ( 'NONE', #126, #99, #227 ) ;
#87 = ORIENTED_EDGE ( 'NONE', *, *, #68, .F. ) ;
#88 = DATE_AND_TIME ( #188, #156 ) ;
#89 = DIRECTION ( 'NONE',  ( -4.275831445896958607E-31, -1.000000000000000000, -1.224646799147353207E-16 ) ) ;
#90 = PERSON_AND_ORGANIZATION ( #275, #286 ) ;
#91 = LOCAL_TIME ( 11, 39, 50.00000000000000000, #46 ) ;
#92 = ORIENTED_EDGE ( 'NONE', *, *, #33, .T. ) ;
#93 = CARTESIAN_POINT ( 'NONE',  ( -6.123006935793484805E-32, 2.147661727890286631E-33, -1.753698886393670634E-17 ) ) ;
#94 = ORIENTED_EDGE ( 'NONE', *, *, #143, .F. ) ;
#95 = APPROVAL_DATE_TIME ( #269, #82 ) ;
#96 = CIRCLE ( 'NONE', #129, 1.500000000000003331 ) ;
#97 = DIRECTION ( 'NONE',  ( 4.275831445896957731E-31, 1.000000000000000000, 1.224646799147352961E-16 ) ) ;
#98 = CONICAL_SURFACE ( 'NONE', #300, 0.4299999999999993272, 0.5235987755982943748 ) ;
#99 = DIRECTION ( 'NONE',  ( 3.491481338843133355E-15, -1.224646799147353207E-16, 1.000000000000000000 ) ) ;
#100 = FACE_OUTER_BOUND ( 'NONE', #197, .T. ) ;
#101 = DIRECTION ( 'NONE',  ( 0.0000000000000000000, 1.000000000000000000, 0.0000000000000000000 ) ) ;
#102 = FACE_BOUND ( 'NONE', #128, .T. ) ;
#103 = MANIFOLD_SOLID_BREP ( 'Corps-Déplacer/Copier1[2]', #51 ) ;
#104 = DIRECTION ( 'NONE',  ( -3.491481338843133355E-15, 1.224646799147353207E-16, -1.000000000000000000 ) ) ;
#105 = ADVANCED_FACE ( 'NONE', ( #268, #298 ), #176, .T. ) ;
#106 = VERTEX_POINT ( 'NONE', #241 ) ;
#107 = CC_DESIGN_DATE_AND_TIME_ASSIGNMENT ( #17, #295, ( #194 ) ) ;
#108 = CARTESIAN_POINT ( 'NONE',  ( 0.0000000000000000000, 0.0000000000000000000, 0.0000000000000000000 ) ) ;
#109 = AXIS2_PLACEMENT_3D ( 'NONE', #173, #16, #20 ) ;
#110 = CC_DESIGN_SECURITY_CLASSIFICATION ( #179, ( #27 ) ) ;
#111 = AXIS2_PLACEMENT_3D ( 'NONE', #253, #54, #163 ) ;
#112 = APPROVAL_STATUS ( 'not_yet_approved' ) ;
#113 = FACE_OUTER_BOUND ( 'NONE', #139, .T. ) ;
#114 = COORDINATED_UNIVERSAL_TIME_OFFSET ( 1, 0, .AHEAD. ) ;
#115 = EDGE_CURVE ( 'NONE', #281, #281, #178, .T. ) ;
#116 = EDGE_LOOP ( 'NONE', ( #195 ) ) ;
#117 = APPROVAL_PERSON_ORGANIZATION ( #177, #82, #248 ) ;
#118 = CYLINDRICAL_SURFACE ( 'NONE', #136, 1.500000000000000444 ) ;
#119 = ORIENTED_EDGE ( 'NONE', *, *, #204, .T. ) ;
#120 = ORIENTED_EDGE ( 'NONE', *, *, #115, .T. ) ;
#121 = DIRECTION ( 'NONE',  ( -3.491481338843133355E-15, 1.224646799147353207E-16, -1.000000000000000000 ) ) ;
#122 = DIRECTION ( 'NONE',  ( 0.0000000000000000000, 1.000000000000000000, 0.0000000000000000000 ) ) ;
#123 = DATE_AND_TIME ( #158, #91 ) ;
#124 = EDGE_CURVE ( 'NONE', #259, #259, #96, .T. ) ;
#125 = DIRECTION ( 'NONE',  ( 0.0000000000000000000, -1.000000000000000000, 0.0000000000000000000 ) ) ;
#126 = CARTESIAN_POINT ( 'NONE',  ( 1.745740669421566678E-14, 3.599423478388449638E-33, 5.000000000000000000 ) ) ;
#127 = AXIS2_PLACEMENT_3D ( 'NONE', #199, #104, #49 ) ;
#128 = EDGE_LOOP ( 'NONE', ( #167 ) ) ;
#129 = AXIS2_PLACEMENT_3D ( 'NONE', #206, #121, #146 ) ;
#130 = CIRCLE ( 'NONE', #61, 0.4799999999999993716 ) ;
#131 = EDGE_LOOP ( 'NONE', ( #21 ) ) ;
#132 = PERSON_AND_ORGANIZATION_ROLE ( 'creator' ) ;
#133 = DIRECTION ( 'NONE',  ( -3.491481338843133355E-15, 1.224646799147353207E-16, -1.000000000000000000 ) ) ;
#134 = CALENDAR_DATE ( 2021, 1, 12 ) ;
#135 = EDGE_LOOP ( 'NONE', ( #210 ) ) ;
#136 = AXIS2_PLACEMENT_3D ( 'NONE', #69, #242, #155 ) ;
#137 = FACE_OUTER_BOUND ( 'NONE', #154, .T. ) ;
#138 = EDGE_CURVE ( 'NONE', #169, #169, #37, .T. ) ;
#139 = EDGE_LOOP ( 'NONE', ( #94 ) ) ;
#140 = DIRECTION ( 'NONE',  ( 0.0000000000000000000, 1.000000000000000000, 0.0000000000000000000 ) ) ;
#141 = CARTESIAN_POINT ( 'NONE',  ( 3.491481338843133355E-14, -1.301042606982605321E-15, 10.00000000000000000 ) ) ;
#142 = AXIS2_PLACEMENT_3D ( 'NONE', #164, #252, #101 ) ;
#143 = EDGE_CURVE ( 'NONE', #13, #13, #65, .T. ) ;
#144 = DIRECTION ( 'NONE',  ( 3.491481338843133355E-15, -1.224646799147353207E-16, 1.000000000000000000 ) ) ;
#145 = CC_DESIGN_PERSON_AND_ORGANIZATION_ASSIGNMENT ( #90, #267, ( #27 ) ) ;
#146 = DIRECTION ( 'NONE',  ( 0.0000000000000000000, 1.000000000000000000, 0.0000000000000000000 ) ) ;
#147 = FACE_OUTER_BOUND ( 'NONE', #35, .T. ) ;
#148 = CARTESIAN_POINT ( 'NONE',  ( 1.745740669421566678E-14, 0.4799999999999993716, 5.000000000000000000 ) ) ;
#149 = APPROVAL_ROLE ( '' ) ;
#150 = UNCERTAINTY_MEASURE_WITH_UNIT (LENGTH_MEASURE( 1.000000000000000082E-05 ), #187, 'distance_accuracy_value', 'NONE');
#151 = TOROIDAL_SURFACE ( 'NONE', #283, 2.430000000000000160, 2.000000000000000888 ) ;
#152 = DIRECTION ( 'NONE',  ( -3.491481338843133355E-15, 1.224646799147353207E-16, -1.000000000000000000 ) ) ;
#153 = CARTESIAN_POINT ( 'NONE',  ( 1.775977784784342036E-14, 0.4299999999999987166, 5.086602540378446058 ) ) ;
#154 = EDGE_LOOP ( 'NONE', ( #270 ) ) ;
#155 = DIRECTION ( 'NONE',  ( 4.275831445896958607E-31, 1.000000000000000000, 1.224646799147353207E-16 ) ) ;
#156 = LOCAL_TIME ( 11, 39, 50.00000000000000000, #193 ) ;
#157 = DIRECTION ( 'NONE',  ( 3.491481338843133355E-15, -1.224646799147353207E-16, 1.000000000000000000 ) ) ;
#158 = CALENDAR_DATE ( 2021, 1, 12 ) ;
#159 = ORIENTED_EDGE ( 'NONE', *, *, #124, .T. ) ;
#160 = PERSON_AND_ORGANIZATION_ROLE ( 'classification_officer' ) ;
#161 = CARTESIAN_POINT ( 'NONE',  ( 1.745740669421566678E-14, -6.123233995736766282E-16, 5.000000000000000000 ) ) ;
#162 = SHAPE_DEFINITION_REPRESENTATION ( #213, #215 ) ;
#163 = DIRECTION ( 'NONE',  ( 0.0000000000000000000, 1.000000000000000000, 0.0000000000000000000 ) ) ;
#164 = CARTESIAN_POINT ( 'NONE',  ( 1.775977784784342036E-14, -6.229291519609259858E-16, 5.086602540378446058 ) ) ;
#165 = PLANE ( 'NONE',  #86 ) ;
#166 = EDGE_CURVE ( 'NONE', #64, #64, #45, .T. ) ;
#167 = ORIENTED_EDGE ( 'NONE', *, *, #143, .T. ) ;
#168 = APPROVAL ( #31, 'UNSPECIFIED' ) ;
#169 = VERTEX_POINT ( 'NONE', #214 ) ;
#170 = APPROVAL ( #112, 'UNSPECIFIED' ) ;
#171 = ORIENTED_EDGE ( 'NONE', *, *, #204, .F. ) ;
#172 = CIRCLE ( 'NONE', #111, 0.4799999999999999822 ) ;
#173 = CARTESIAN_POINT ( 'NONE',  ( 1.326762908760390423E-13, -4.653657836759941941E-15, 38.00000000000000000 ) ) ;
#174 = SECURITY_CLASSIFICATION_LEVEL ( 'unclassified' ) ;
#175 = CARTESIAN_POINT ( 'NONE',  ( 1.745740669421566678E-14, 3.599423478388449638E-33, 5.000000000000000000 ) ) ;
#176 = CYLINDRICAL_SURFACE ( 'NONE', #56, 0.4799999999999996492 ) ;
#177 = PERSON_AND_ORGANIZATION ( #275, #286 ) ;
#178 = CIRCLE ( 'NONE', #212, 1.499999999999997335 ) ;
#179 = SECURITY_CLASSIFICATION ( '', '', #174 ) ;
#180 = CARTESIAN_POINT ( 'NONE',  ( 5.671300032590595696E-14, -1.989224274135063743E-15, 16.24324887404302231 ) ) ;
#181 = FACE_BOUND ( 'NONE', #239, .T. ) ;
#182 = DIRECTION ( 'NONE',  ( -4.012354050806746907E-31, -1.000000000000000000, -1.129377263005735347E-16 ) ) ;
#183 = DIRECTION ( 'NONE',  ( 0.0000000000000000000, 1.000000000000000000, 0.0000000000000000000 ) ) ;
#184 = CIRCLE ( 'NONE', #260, 0.4799999999999999822 ) ;
#185 = VERTEX_POINT ( 'NONE', #280 ) ;
#186 = CARTESIAN_POINT ( 'NONE',  ( 3.491481338843133355E-14, 0.4299999999999989386, 10.00000000000000000 ) ) ;
#187 =( LENGTH_UNIT ( ) NAMED_UNIT ( * ) SI_UNIT ( .MILLI., .METRE. ) );
#188 = CALENDAR_DATE ( 2021, 1, 12 ) ;
#189 = APPROVAL_PERSON_ORGANIZATION ( #207, #168, #208 ) ;
#190 = EDGE_LOOP ( 'NONE', ( #221 ) ) ;
#191 = DATE_AND_TIME ( #8, #73 ) ;
#192 = ORIENTED_EDGE ( 'NONE', *, *, #124, .F. ) ;
#193 = COORDINATED_UNIVERSAL_TIME_OFFSET ( 1, 0, .AHEAD. ) ;
#194 = PRODUCT_DEFINITION ( 'UNKNOWN', '', #27, #75 ) ;
#195 = ORIENTED_EDGE ( 'NONE', *, *, #138, .T. ) ;
#196 = EDGE_LOOP ( 'NONE', ( #159 ) ) ;
#197 = EDGE_LOOP ( 'NONE', ( #92 ) ) ;
#198 = CC_DESIGN_PERSON_AND_ORGANIZATION_ASSIGNMENT ( #30, #132, ( #194 ) ) ;
#199 = CARTESIAN_POINT ( 'NONE',  ( 1.326762908760390423E-13, -4.653657836759941941E-15, 38.00000000000000000 ) ) ;
#200 = DIRECTION ( 'NONE',  ( -3.491481338843133355E-15, 1.224646799147353207E-16, -1.000000000000000000 ) ) ;
#201 = APPROVAL_STATUS ( 'not_yet_approved' ) ;
#202 = DIRECTION ( 'NONE',  ( -3.491481338843133355E-15, 1.224646799147353207E-16, -1.000000000000000000 ) ) ;
#203 = DIRECTION ( 'NONE',  ( 3.491481338843133355E-15, -1.224646799147353207E-16, 1.000000000000000000 ) ) ;
#204 = EDGE_CURVE ( 'NONE', #40, #40, #130, .T. ) ;
#205 = AXIS2_PLACEMENT_3D ( 'NONE', #28, #302, #140 ) ;
#206 = CARTESIAN_POINT ( 'NONE',  ( 1.316288464743861212E-13, -4.616918432785521081E-15, 37.69999999999999574 ) ) ;
#207 = PERSON_AND_ORGANIZATION ( #275, #286 ) ;
#208 = APPROVAL_ROLE ( '' ) ;
#209 = AXIS2_PLACEMENT_3D ( 'NONE', #72, #152, #66 ) ;
#210 = ORIENTED_EDGE ( 'NONE', *, *, #228, .T. ) ;
#211 =( GEOMETRIC_REPRESENTATION_CONTEXT ( 3 ) GLOBAL_UNCERTAINTY_ASSIGNED_CONTEXT ( ( #150 ) ) GLOBAL_UNIT_ASSIGNED_CONTEXT ( ( #187, #240, #60 ) ) REPRESENTATION_CONTEXT ( 'NONE', 'WORKASPACE' ) );
#212 = AXIS2_PLACEMENT_3D ( 'NONE', #180, #5, #122 ) ;
#213 = PRODUCT_DEFINITION_SHAPE ( 'NONE', 'NONE',  #194 ) ;
#214 = CARTESIAN_POINT ( 'NONE',  ( 1.326762908760390423E-13, 1.199999999999998845, 38.00000000000000000 ) ) ;
#215 = ADVANCED_BREP_SHAPE_REPRESENTATION ( '200730', ( #292, #103, #3 ), #211 ) ;
#216 = ORIENTED_EDGE ( 'NONE', *, *, #249, .F. ) ;
#217 = CC_DESIGN_PERSON_AND_ORGANIZATION_ASSIGNMENT ( #19, #160, ( #179 ) ) ;
#218 = COORDINATED_UNIVERSAL_TIME_OFFSET ( 1, 0, .AHEAD. ) ;
#219 = FACE_BOUND ( 'NONE', #116, .T. ) ;
#220 = APPLICATION_PROTOCOL_DEFINITION ( 'international standard', 'config_control_design', 1994, #285 ) ;
#221 = ORIENTED_EDGE ( 'NONE', *, *, #166, .T. ) ;
#222 = AXIS2_PLACEMENT_3D ( 'NONE', #93, #299, #289 ) ;
#223 = AXIS2_PLACEMENT_3D ( 'NONE', #24, #200, #25 ) ;
#224 = EDGE_LOOP ( 'NONE', ( #84 ) ) ;
#225 = COORDINATED_UNIVERSAL_TIME_OFFSET ( 1, 0, .AHEAD. ) ;
#226 = ORIENTED_EDGE ( 'NONE', *, *, #166, .F. ) ;
#227 = DIRECTION ( 'NONE',  ( -4.275831445896958607E-31, -1.000000000000000000, -1.224646799147353207E-16 ) ) ;
#228 = EDGE_CURVE ( 'NONE', #57, #57, #172, .T. ) ;
#229 = DIRECTION ( 'NONE',  ( 4.275831445896958607E-31, 1.000000000000000000, 1.224646799147353207E-16 ) ) ;
#230 = FACE_OUTER_BOUND ( 'NONE', #245, .T. ) ;
#231 = FACE_OUTER_BOUND ( 'NONE', #293, .T. ) ;
#232 = CIRCLE ( 'NONE', #222, 0.3645299461620757908 ) ;
#233 = VERTEX_POINT ( 'NONE', #186 ) ;
#234 = CC_DESIGN_APPROVAL ( #168, ( #27 ) ) ;
#235 = PRODUCT ( '200730', '200730', '', ( #15 ) ) ;
#236 = ADVANCED_FACE ( 'NONE', ( #147 ), #165, .T. ) ;
#237 = APPLICATION_PROTOCOL_DEFINITION ( 'international standard', 'config_control_design', 1994, #264 ) ;
#238 = CONICAL_SURFACE ( 'NONE', #256, 0.4799999999999993716, 0.5235987755982929315 ) ;
#239 = EDGE_LOOP ( 'NONE', ( #62 ) ) ;
#240 =( NAMED_UNIT ( * ) PLANE_ANGLE_UNIT ( ) SI_UNIT ( $, .RADIAN. ) );
#241 = CARTESIAN_POINT ( 'NONE',  ( 1.745740669421566678E-14, 0.4799999999999993716, 5.000000000000000000 ) ) ;
#242 = DIRECTION ( 'NONE',  ( -3.491481338843133355E-15, 1.224646799147353207E-16, -1.000000000000000000 ) ) ;
#243 = ADVANCED_FACE ( 'NONE', ( #181, #276 ), #238, .T. ) ;
#244 = CARTESIAN_POINT ( 'NONE',  ( 5.671300032590595696E-14, 1.499999999999995559, 16.24324887404302231 ) ) ;
#245 = EDGE_LOOP ( 'NONE', ( #32 ) ) ;
#246 = DIRECTION ( 'NONE',  ( 0.0000000000000000000, 1.000000000000000000, 0.0000000000000000000 ) ) ;
#247 = DIRECTION ( 'NONE',  ( -3.491481338843133355E-15, 1.224646799147353207E-16, -1.000000000000000000 ) ) ;
#248 = APPROVAL_ROLE ( '' ) ;
#249 = EDGE_CURVE ( 'NONE', #106, #106, #184, .T. ) ;
#250 = DIRECTION ( 'NONE',  ( -4.275831445896958607E-31, -1.000000000000000000, -1.224646799147353207E-16 ) ) ;
#251 = DIRECTION ( 'NONE',  ( 0.0000000000000000000, 1.000000000000000000, 0.0000000000000000000 ) ) ;
#252 = DIRECTION ( 'NONE',  ( -3.491481338843133355E-15, 1.224646799147353207E-16, -1.000000000000000000 ) ) ;
#253 = CARTESIAN_POINT ( 'NONE',  ( 1.745740669421566678E-14, -6.123233995736766282E-16, 5.000000000000000000 ) ) ;
#254 = FACE_OUTER_BOUND ( 'NONE', #47, .T. ) ;
#255 = CLOSED_SHELL ( 'NONE', ( #59, #288, #29, #261, #282, #63, #80, #272 ) ) ;
#256 = AXIS2_PLACEMENT_3D ( 'NONE', #83, #144, #182 ) ;
#257 = PERSON_AND_ORGANIZATION ( #275, #286 ) ;
#258 = EDGE_LOOP ( 'NONE', ( #119 ) ) ;
#259 = VERTEX_POINT ( 'NONE', #67 ) ;
#260 = AXIS2_PLACEMENT_3D ( 'NONE', #161, #76, #251 ) ;
#261 = ADVANCED_FACE ( 'NONE', ( #254, #50 ), #151, .F. ) ;
#262 = EDGE_LOOP ( 'NONE', ( #171 ) ) ;
#263 = APPROVAL_DATE_TIME ( #88, #170 ) ;
#264 = APPLICATION_CONTEXT ( 'configuration controlled 3d designs of mechanical parts and assemblies' ) ;
#265 = EDGE_LOOP ( 'NONE', ( #9 ) ) ;
#266 = CC_DESIGN_APPROVAL ( #82, ( #179 ) ) ;
#267 = PERSON_AND_ORGANIZATION_ROLE ( 'creator' ) ;
#268 = FACE_OUTER_BOUND ( 'NONE', #262, .T. ) ;
#269 = DATE_AND_TIME ( #301, #52 ) ;
#270 = ORIENTED_EDGE ( 'NONE', *, *, #68, .T. ) ;
#271 = CARTESIAN_POINT ( 'NONE',  ( 0.0000000000000000000, 0.0000000000000000000, 0.0000000000000000000 ) ) ;
#272 = ADVANCED_FACE ( 'NONE', ( #230 ), #1, .F. ) ;
#273 = CC_DESIGN_APPROVAL ( #170, ( #194 ) ) ;
#274 = CYLINDRICAL_SURFACE ( 'NONE', #209, 0.4299999999999997713 ) ;
#275 = PERSON ( 'UNSPECIFIED', 'UNSPECIFIED', 'UNSPECIFIED', ('UNSPECIFIED'), ('UNSPECIFIED'), ('UNSPECIFIED') ) ;
#276 = FACE_OUTER_BOUND ( 'NONE', #258, .T. ) ;
#277 = DIRECTION ( 'NONE',  ( 3.491481338843133355E-15, -1.224646799147353207E-16, 1.000000000000000000 ) ) ;
#278 = ADVANCED_FACE ( 'NONE', ( #100 ), #55, .F. ) ;
#279 = DIRECTION ( 'NONE',  ( -3.491481338843133355E-15, 1.224646799147353207E-16, -1.000000000000000000 ) ) ;
#280 = CARTESIAN_POINT ( 'NONE',  ( 9.463679131915806782E-32, 0.3645299461620757908, 2.710505431213761085E-17 ) ) ;
#281 = VERTEX_POINT ( 'NONE', #244 ) ;
#282 = ADVANCED_FACE ( 'NONE', ( #77, #231 ), #7, .T. ) ;
#283 = AXIS2_PLACEMENT_3D ( 'NONE', #141, #279, #229 ) ;
#284 = DIRECTION ( 'NONE',  ( 0.0000000000000000000, 0.0000000000000000000, 1.000000000000000000 ) ) ;
#285 = APPLICATION_CONTEXT ( 'configuration controlled 3d designs of mechanical parts and assemblies' ) ;
#286 = ORGANIZATION ( 'UNSPECIFIED', 'UNSPECIFIED', '' ) ;
#287 = CARTESIAN_POINT ( 'NONE',  ( 6.982962677686267697E-16, 0.4799999999999993716, 0.2000000000000000111 ) ) ;
#288 = ADVANCED_FACE ( 'NONE', ( #4, #102 ), #98, .T. ) ;
#289 = DIRECTION ( 'NONE',  ( 4.275831445896959482E-31, 1.000000000000000000, 1.224646799147353454E-16 ) ) ;
#290 = APPROVAL_DATE_TIME ( #191, #168 ) ;
#291 = CC_DESIGN_PERSON_AND_ORGANIZATION_ASSIGNMENT ( #297, #48, ( #27 ) ) ;
#292 = MANIFOLD_SOLID_BREP ( 'Corps-Déplacer/Copier1[1]', #255 ) ;
#293 = EDGE_LOOP ( 'NONE', ( #120 ) ) ;
#294 = LOCAL_TIME ( 11, 39, 50.00000000000000000, #218 ) ;
#295 = DATE_TIME_ROLE ( 'creation_date' ) ;
#296 = PLANE ( 'NONE',  #12 ) ;
#297 = PERSON_AND_ORGANIZATION ( #275, #286 ) ;
#298 = FACE_OUTER_BOUND ( 'NONE', #224, .T. ) ;
#299 = DIRECTION ( 'NONE',  ( -3.491481338843133355E-15, 1.224646799147353207E-16, -1.000000000000000000 ) ) ;
#300 = AXIS2_PLACEMENT_3D ( 'NONE', #53, #202, #183 ) ;
#301 = CALENDAR_DATE ( 2021, 1, 12 ) ;
#302 = DIRECTION ( 'NONE',  ( -3.491481338843133355E-15, 1.224646799147353207E-16, -1.000000000000000000 ) ) ;
#303 = CARTESIAN_POINT ( 'NONE',  ( -3.061503467896742403E-32, 1.073830863945143315E-33, -8.768494431968353169E-18 ) ) ;
ENDSEC;
END-ISO-10303-21;
