ISO-10303-21;
HEADER;
FILE_DESCRIPTION (( 'STEP AP203' ),
    '1' );
FILE_NAME ('200729.step',
    '2021-12-01T10:39:49',
    ( '' ),
    ( '' ),
    'SwSTEP 2.0',
    'SolidWorks 2019',
    '' );
FILE_SCHEMA (( 'CONFIG_CONTROL_DESIGN' ));
ENDSEC;

DATA;
#1 = PERSON_AND_ORGANIZATION_ROLE ( 'classification_officer' ) ;
#2 = FACE_OUTER_BOUND ( 'NONE', #136, .T. ) ;
#3 = SECURITY_CLASSIFICATION ( '', '', #283 ) ;
#4 = SHAPE_DEFINITION_REPRESENTATION ( #146, #203 ) ;
#5 = EDGE_LOOP ( 'NONE', ( #106 ) ) ;
#6 = DIRECTION ( 'NONE',  ( -3.491481338843133355E-15, 1.224646799147353207E-16, -1.000000000000000000 ) ) ;
#7 = ADVANCED_FACE ( 'NONE', ( #202 ), #83, .T. ) ;
#8 = CARTESIAN_POINT ( 'NONE',  ( -2.419519891044571418E-31, 8.486533372172813613E-33, -6.929780388991723937E-17 ) ) ;
#9 = CIRCLE ( 'NONE', #54, 1.500000000000003331 ) ;
#10 = DIRECTION ( 'NONE',  ( 4.275831445896958607E-31, 1.000000000000000000, 1.224646799147353207E-16 ) ) ;
#11 = CARTESIAN_POINT ( 'NONE',  ( 0.0000000000000000000, 0.0000000000000000000, 0.0000000000000000000 ) ) ;
#12 = DIRECTION ( 'NONE',  ( -3.491481338843133355E-15, 1.224646799147353207E-16, -1.000000000000000000 ) ) ;
#13 = APPROVAL_STATUS ( 'not_yet_approved' ) ;
#14 = CARTESIAN_POINT ( 'NONE',  ( 3.612739213212769742E-14, 0.4503844939755786148, 10.34729635533384773 ) ) ;
#15 = APPROVAL_PERSON_ORGANIZATION ( #224, #151, #34 ) ;
#16 = APPROVAL ( #13, 'UNSPECIFIED' ) ;
#17 = COORDINATED_UNIVERSAL_TIME_OFFSET ( 1, 0, .AHEAD. ) ;
#18 = CARTESIAN_POINT ( 'NONE',  ( 6.982962677686267697E-16, 0.4599999999999994094, 0.2000000000000000111 ) ) ;
#19 = LOCAL_TIME ( 11, 39, 49.00000000000000000, #24 ) ;
#20 = ORIENTED_EDGE ( 'NONE', *, *, #137, .T. ) ;
#21 = ORIENTED_EDGE ( 'NONE', *, *, #95, .F. ) ;
#22 = ORIENTED_EDGE ( 'NONE', *, *, #62, .T. ) ;
#23 = CONICAL_SURFACE ( 'NONE', #247, 0.4199999999999993183, 0.5235987755982933756 ) ;
#24 = COORDINATED_UNIVERSAL_TIME_OFFSET ( 1, 0, .AHEAD. ) ;
#25 = CARTESIAN_POINT ( 'NONE',  ( 1.745740669421566678E-14, -6.123233995736766282E-16, 5.000000000000000000 ) ) ;
#26 = EDGE_LOOP ( 'NONE', ( #282 ) ) ;
#27 = DIRECTION ( 'NONE',  ( -3.491481338843133355E-15, 1.224646799147353207E-16, -1.000000000000000000 ) ) ;
#28 = ADVANCED_FACE ( 'NONE', ( #284 ), #178, .F. ) ;
#29 = LOCAL_TIME ( 11, 39, 49.00000000000000000, #181 ) ;
#30 = DIRECTION ( 'NONE',  ( -4.275831445896958607E-31, -1.000000000000000000, -1.224646799147353207E-16 ) ) ;
#31 = DIRECTION ( 'NONE',  ( 4.186804226928779077E-31, 1.000000000000000000, 1.178480622266854189E-16 ) ) ;
#32 = CARTESIAN_POINT ( 'NONE',  ( 6.982962677686265724E-16, -2.449293598294705921E-17, 0.1999999999999999556 ) ) ;
#33 = AXIS2_PLACEMENT_3D ( 'NONE', #25, #184, #112 ) ;
#34 = APPROVAL_ROLE ( '' ) ;
#35 = DATE_AND_TIME ( #64, #19 ) ;
#36 = ORIENTED_EDGE ( 'NONE', *, *, #244, .T. ) ;
#37 = APPROVAL_DATE_TIME ( #35, #16 ) ;
#38 = EDGE_LOOP ( 'NONE', ( #234 ) ) ;
#39 = PERSON_AND_ORGANIZATION ( #218, #242 ) ;
#40 = ORIENTED_EDGE ( 'NONE', *, *, #137, .F. ) ;
#41 = CONICAL_SURFACE ( 'NONE', #248, 0.4599999999999994094, 0.5235987755982925984 ) ;
#42 = DIRECTION ( 'NONE',  ( 3.491481338843133355E-15, -1.224646799147353207E-16, 1.000000000000000000 ) ) ;
#43 = DIRECTION ( 'NONE',  ( 0.0000000000000000000, 1.000000000000000000, 0.0000000000000000000 ) ) ;
#44 = FACE_BOUND ( 'NONE', #154, .T. ) ;
#45 = AXIS2_PLACEMENT_3D ( 'NONE', #11, #235, #94 ) ;
#46 = FACE_OUTER_BOUND ( 'NONE', #258, .T. ) ;
#47 = FACE_OUTER_BOUND ( 'NONE', #63, .T. ) ;
#48 = CC_DESIGN_PERSON_AND_ORGANIZATION_ASSIGNMENT ( #302, #186, ( #124 ) ) ;
#49 = FACE_OUTER_BOUND ( 'NONE', #276, .T. ) ;
#50 = CARTESIAN_POINT ( 'NONE',  ( 0.0000000000000000000, 0.0000000000000000000, 0.0000000000000000000 ) ) ;
#51 = MECHANICAL_CONTEXT ( 'NONE', #123, 'mechanical' ) ;
#52 =( NAMED_UNIT ( * ) PLANE_ANGLE_UNIT ( ) SI_UNIT ( $, .RADIAN. ) );
#53 = AXIS2_PLACEMENT_3D ( 'NONE', #65, #159, #229 ) ;
#54 = AXIS2_PLACEMENT_3D ( 'NONE', #165, #69, #71 ) ;
#55 = VERTEX_POINT ( 'NONE', #78 ) ;
#56 =( GEOMETRIC_REPRESENTATION_CONTEXT ( 3 ) GLOBAL_UNCERTAINTY_ASSIGNED_CONTEXT ( ( #58 ) ) GLOBAL_UNIT_ASSIGNED_CONTEXT ( ( #223, #52, #275 ) ) REPRESENTATION_CONTEXT ( 'NONE', 'WORKASPACE' ) );
#57 = COORDINATED_UNIVERSAL_TIME_OFFSET ( 1, 0, .AHEAD. ) ;
#58 = UNCERTAINTY_MEASURE_WITH_UNIT (LENGTH_MEASURE( 1.000000000000000082E-05 ), #223, 'distance_accuracy_value', 'NONE');
#59 = EDGE_LOOP ( 'NONE', ( #60 ) ) ;
#60 = ORIENTED_EDGE ( 'NONE', *, *, #62, .F. ) ;
#61 = DIRECTION ( 'NONE',  ( -4.275831445896958607E-31, -1.000000000000000000, -1.224646799147353207E-16 ) ) ;
#62 = EDGE_CURVE ( 'NONE', #221, #221, #279, .T. ) ;
#63 = EDGE_LOOP ( 'NONE', ( #206 ) ) ;
#64 = CALENDAR_DATE ( 2021, 1, 12 ) ;
#65 = CARTESIAN_POINT ( 'NONE',  ( 3.491481338843133355E-14, -1.224646799147353256E-15, 10.00000000000000000 ) ) ;
#66 = CC_DESIGN_PERSON_AND_ORGANIZATION_ASSIGNMENT ( #148, #199, ( #185 ) ) ;
#67 = DIRECTION ( 'NONE',  ( -3.491481338843133355E-15, 1.224646799147353207E-16, -1.000000000000000000 ) ) ;
#68 = FACE_OUTER_BOUND ( 'NONE', #38, .T. ) ;
#69 = DIRECTION ( 'NONE',  ( -3.491481338843133355E-15, 1.224646799147353207E-16, -1.000000000000000000 ) ) ;
#70 = CIRCLE ( 'NONE', #53, 0.4199999999999997624 ) ;
#71 = DIRECTION ( 'NONE',  ( 0.0000000000000000000, 1.000000000000000000, 0.0000000000000000000 ) ) ;
#72 = MANIFOLD_SOLID_BREP ( 'Corps-Déplacer/Copier1[2]', #210 ) ;
#73 = DIRECTION ( 'NONE',  ( -3.491481338843133355E-15, 1.224646799147353207E-16, -1.000000000000000000 ) ) ;
#74 = DIRECTION ( 'NONE',  ( 0.0000000000000000000, 0.0000000000000000000, 1.000000000000000000 ) ) ;
#75 = CLOSED_SHELL ( 'NONE', ( #28, #77, #157, #171, #122, #215, #285, #301 ) ) ;
#76 = AXIS2_PLACEMENT_3D ( 'NONE', #113, #174, #149 ) ;
#77 = ADVANCED_FACE ( 'NONE', ( #208, #182 ), #23, .T. ) ;
#78 = CARTESIAN_POINT ( 'NONE',  ( 1.326762908760390423E-13, 1.199999999999998845, 38.00000000000000000 ) ) ;
#79 = VERTEX_POINT ( 'NONE', #246 ) ;
#80 = AXIS2_PLACEMENT_3D ( 'NONE', #288, #73, #166 ) ;
#81 = APPLICATION_PROTOCOL_DEFINITION ( 'international standard', 'config_control_design', 1994, #269 ) ;
#82 = PRODUCT ( '200729', '200729', '', ( #51 ) ) ;
#83 = PLANE ( 'NONE',  #115 ) ;
#84 = EDGE_LOOP ( 'NONE', ( #278 ) ) ;
#85 = DATE_TIME_ROLE ( 'classification_date' ) ;
#86 = CC_DESIGN_DATE_AND_TIME_ASSIGNMENT ( #150, #249, ( #185 ) ) ;
#87 = CARTESIAN_POINT ( 'NONE',  ( 5.691101207231111931E-14, -1.996169591262521715E-15, 16.29996169223920433 ) ) ;
#88 = CIRCLE ( 'NONE', #135, 0.4199999999999993183 ) ;
#89 = ORIENTED_EDGE ( 'NONE', *, *, #277, .T. ) ;
#90 = COORDINATED_UNIVERSAL_TIME_OFFSET ( 1, 0, .AHEAD. ) ;
#91 = EDGE_LOOP ( 'NONE', ( #21 ) ) ;
#92 = CARTESIAN_POINT ( 'NONE',  ( 5.691101207231111931E-14, -1.996169591262521715E-15, 16.29996169223920433 ) ) ;
#93 = FACE_OUTER_BOUND ( 'NONE', #303, .T. ) ;
#94 = DIRECTION ( 'NONE',  ( 4.275831445896958607E-31, 1.000000000000000000, 1.224646799147353207E-16 ) ) ;
#95 = EDGE_CURVE ( 'NONE', #295, #295, #70, .T. ) ;
#96 = FACE_OUTER_BOUND ( 'NONE', #272, .T. ) ;
#97 = CC_DESIGN_APPROVAL ( #151, ( #185 ) ) ;
#98 = FACE_BOUND ( 'NONE', #228, .T. ) ;
#99 = VERTEX_POINT ( 'NONE', #14 ) ;
#100 = DIRECTION ( 'NONE',  ( 1.000000000000000000, 0.0000000000000000000, 0.0000000000000000000 ) ) ;
#101 = PERSON_AND_ORGANIZATION_ROLE ( 'design_owner' ) ;
#102 = CARTESIAN_POINT ( 'NONE',  ( 1.769930361711787028E-14, 0.4199999999999987077, 5.069282032302757202 ) ) ;
#103 = CARTESIAN_POINT ( 'NONE',  ( 1.745740669421566678E-14, 0.4599999999999994094, 5.000000000000000000 ) ) ;
#104 = EDGE_CURVE ( 'NONE', #99, #99, #231, .T. ) ;
#105 = AXIS2_PLACEMENT_3D ( 'NONE', #176, #152, #205 ) ;
#106 = ORIENTED_EDGE ( 'NONE', *, *, #277, .F. ) ;
#107 = CC_DESIGN_DATE_AND_TIME_ASSIGNMENT ( #127, #85, ( #3 ) ) ;
#108 = FACE_BOUND ( 'NONE', #256, .T. ) ;
#109 = ORIENTED_EDGE ( 'NONE', *, *, #161, .T. ) ;
#110 = AXIS2_PLACEMENT_3D ( 'NONE', #141, #237, #30 ) ;
#111 = PERSON_AND_ORGANIZATION_ROLE ( 'creator' ) ;
#112 = DIRECTION ( 'NONE',  ( 0.0000000000000000000, 1.000000000000000000, 0.0000000000000000000 ) ) ;
#113 = CARTESIAN_POINT ( 'NONE',  ( 1.326762908760390423E-13, 8.998558695971103225E-33, 38.00000000000000000 ) ) ;
#114 = CARTESIAN_POINT ( 'NONE',  ( 1.326762908760390423E-13, -4.653657836759941941E-15, 38.00000000000000000 ) ) ;
#115 = AXIS2_PLACEMENT_3D ( 'NONE', #230, #42, #61 ) ;
#116 = CARTESIAN_POINT ( 'NONE',  ( 1.769930361711787028E-14, -6.208080014834760946E-16, 5.069282032302757202 ) ) ;
#117 = CC_DESIGN_PERSON_AND_ORGANIZATION_ASSIGNMENT ( #271, #101, ( #82 ) ) ;
#118 = DIRECTION ( 'NONE',  ( 4.275831445896958607E-31, 1.000000000000000000, 1.224646799147353207E-16 ) ) ;
#119 = DIRECTION ( 'NONE',  ( 3.491481338843133355E-15, -1.224646799147353207E-16, 1.000000000000000000 ) ) ;
#120 = CONICAL_SURFACE ( 'NONE', #80, 1.200000000000003286, 0.7853981633974453924 ) ;
#121 = APPROVAL_DATE_TIME ( #293, #151 ) ;
#122 = ADVANCED_FACE ( 'NONE', ( #108, #2 ), #198, .T. ) ;
#123 = APPLICATION_CONTEXT ( 'configuration controlled 3d designs of mechanical parts and assemblies' ) ;
#124 = PRODUCT_DEFINITION_FORMATION_WITH_SPECIFIED_SOURCE ( 'ANY', '', #82, .NOT_KNOWN. ) ;
#125 = CARTESIAN_POINT ( 'NONE',  ( -9.463679131915808972E-32, 0.3445299461620759396, -2.710505431213761085E-17 ) ) ;
#126 = CC_DESIGN_PERSON_AND_ORGANIZATION_ASSIGNMENT ( #129, #111, ( #124 ) ) ;
#127 = DATE_AND_TIME ( #207, #232 ) ;
#128 = AXIS2_PLACEMENT_3D ( 'NONE', #87, #281, #264 ) ;
#129 = PERSON_AND_ORGANIZATION ( #218, #242 ) ;
#130 = EDGE_LOOP ( 'NONE', ( #260 ) ) ;
#131 = PRODUCT_RELATED_PRODUCT_CATEGORY ( 'detail', '', ( #82 ) ) ;
#132 = PERSON_AND_ORGANIZATION ( #218, #242 ) ;
#133 = CARTESIAN_POINT ( 'NONE',  ( 1.769930361711787028E-14, -6.208080014834760946E-16, 5.069282032302757202 ) ) ;
#134 = ORIENTED_EDGE ( 'NONE', *, *, #104, .F. ) ;
#135 = AXIS2_PLACEMENT_3D ( 'NONE', #116, #290, #213 ) ;
#136 = EDGE_LOOP ( 'NONE', ( #36 ) ) ;
#137 = EDGE_CURVE ( 'NONE', #79, #79, #9, .T. ) ;
#138 = EDGE_LOOP ( 'NONE', ( #89 ) ) ;
#139 = FACE_OUTER_BOUND ( 'NONE', #200, .T. ) ;
#140 = DESIGN_CONTEXT ( 'detailed design', #269, 'design' ) ;
#141 = CARTESIAN_POINT ( 'NONE',  ( -1.209759945522285709E-31, 4.243266686086406806E-33, -3.464890194495861969E-17 ) ) ;
#142 = DIRECTION ( 'NONE',  ( -3.491481338843133355E-15, 1.224646799147353207E-16, -1.000000000000000000 ) ) ;
#143 = CYLINDRICAL_SURFACE ( 'NONE', #168, 1.500000000000000444 ) ;
#144 = PLANE ( 'NONE',  #76 ) ;
#145 = LOCAL_TIME ( 11, 39, 49.00000000000000000, #17 ) ;
#146 = PRODUCT_DEFINITION_SHAPE ( 'NONE', 'NONE',  #185 ) ;
#147 = VERTEX_POINT ( 'NONE', #125 ) ;
#148 = PERSON_AND_ORGANIZATION ( #218, #242 ) ;
#149 = DIRECTION ( 'NONE',  ( 4.275831445896958607E-31, 1.000000000000000000, 1.224646799147353207E-16 ) ) ;
#150 = DATE_AND_TIME ( #245, #145 ) ;
#151 = APPROVAL ( #197, 'UNSPECIFIED' ) ;
#152 = DIRECTION ( 'NONE',  ( -3.491481338843133355E-15, 1.224646799147353207E-16, -1.000000000000000000 ) ) ;
#153 = CIRCLE ( 'NONE', #280, 0.3445299461620759396 ) ;
#154 = EDGE_LOOP ( 'NONE', ( #252 ) ) ;
#155 = EDGE_LOOP ( 'NONE', ( #300 ) ) ;
#156 = CARTESIAN_POINT ( 'NONE',  ( 1.745740669421566678E-14, 3.449447500122264150E-33, 5.000000000000000000 ) ) ;
#157 = ADVANCED_FACE ( 'NONE', ( #216, #46 ), #160, .T. ) ;
#158 = AXIS2_PLACEMENT_3D ( 'NONE', #92, #27, #191 ) ;
#159 = DIRECTION ( 'NONE',  ( -3.491481338843133355E-15, 1.224646799147353207E-16, -1.000000000000000000 ) ) ;
#160 = CYLINDRICAL_SURFACE ( 'NONE', #227, 0.4199999999999995404 ) ;
#161 = EDGE_CURVE ( 'NONE', #55, #55, #263, .T. ) ;
#162 = CARTESIAN_POINT ( 'NONE',  ( 0.0000000000000000000, 0.0000000000000000000, 0.0000000000000000000 ) ) ;
#163 = FACE_OUTER_BOUND ( 'NONE', #26, .T. ) ;
#164 = CC_DESIGN_SECURITY_CLASSIFICATION ( #3, ( #124 ) ) ;
#165 = CARTESIAN_POINT ( 'NONE',  ( 1.316288464743861212E-13, -4.616918432785521081E-15, 37.69999999999999574 ) ) ;
#166 = DIRECTION ( 'NONE',  ( 0.0000000000000000000, 1.000000000000000000, 0.0000000000000000000 ) ) ;
#167 = CARTESIAN_POINT ( 'NONE',  ( 3.491481338843133355E-14, 0.4199999999999984857, 10.00000000000000000 ) ) ;
#168 = AXIS2_PLACEMENT_3D ( 'NONE', #261, #67, #10 ) ;
#169 = CARTESIAN_POINT ( 'NONE',  ( 1.745740669421566678E-14, 0.4599999999999994094, 5.000000000000000000 ) ) ;
#170 = VERTEX_POINT ( 'NONE', #270 ) ;
#171 = ADVANCED_FACE ( 'NONE', ( #286, #163 ), #294, .F. ) ;
#172 = VERTEX_POINT ( 'NONE', #18 ) ;
#173 = AXIS2_PLACEMENT_3D ( 'NONE', #209, #195, #265 ) ;
#174 = DIRECTION ( 'NONE',  ( -3.491481338843133355E-15, 1.224646799147353207E-16, -1.000000000000000000 ) ) ;
#175 = EDGE_CURVE ( 'NONE', #172, #172, #201, .T. ) ;
#176 = CARTESIAN_POINT ( 'NONE',  ( 3.612739213212769742E-14, -1.267178336138866969E-15, 10.34729635533384773 ) ) ;
#177 = APPROVAL_STATUS ( 'not_yet_approved' ) ;
#178 = PLANE ( 'NONE',  #292 ) ;
#179 = MANIFOLD_SOLID_BREP ( 'Corps-Déplacer/Copier1[1]', #75 ) ;
#180 = LOCAL_TIME ( 11, 39, 49.00000000000000000, #57 ) ;
#181 = COORDINATED_UNIVERSAL_TIME_OFFSET ( 1, 0, .AHEAD. ) ;
#182 = FACE_BOUND ( 'NONE', #138, .T. ) ;
#183 = APPROVAL_DATE_TIME ( #251, #196 ) ;
#184 = DIRECTION ( 'NONE',  ( -3.491481338843133355E-15, 1.224646799147353207E-16, -1.000000000000000000 ) ) ;
#185 = PRODUCT_DEFINITION ( 'UNKNOWN', '', #124, #140 ) ;
#186 = PERSON_AND_ORGANIZATION_ROLE ( 'design_supplier' ) ;
#187 = DIRECTION ( 'NONE',  ( 0.0000000000000000000, 1.000000000000000000, 0.0000000000000000000 ) ) ;
#188 = CC_DESIGN_APPROVAL ( #16, ( #124 ) ) ;
#189 = DIRECTION ( 'NONE',  ( -3.491481338843133355E-15, 1.224646799147353207E-16, -1.000000000000000000 ) ) ;
#190 = EDGE_CURVE ( 'NONE', #147, #147, #153, .T. ) ;
#191 = DIRECTION ( 'NONE',  ( 0.0000000000000000000, 1.000000000000000000, 0.0000000000000000000 ) ) ;
#192 = FACE_OUTER_BOUND ( 'NONE', #291, .T. ) ;
#193 = DIRECTION ( 'NONE',  ( -4.186804226928779077E-31, -1.000000000000000000, -1.178480622266854189E-16 ) ) ;
#194 = AXIS2_PLACEMENT_3D ( 'NONE', #32, #238, #31 ) ;
#195 = DIRECTION ( 'NONE',  ( -3.491481338843133355E-15, 1.224646799147353207E-16, -1.000000000000000000 ) ) ;
#196 = APPROVAL ( #177, 'UNSPECIFIED' ) ;
#197 = APPROVAL_STATUS ( 'not_yet_approved' ) ;
#198 = CONICAL_SURFACE ( 'NONE', #128, 1.499999999999997335, 0.1745329251994262032 ) ;
#199 = PERSON_AND_ORGANIZATION_ROLE ( 'creator' ) ;
#200 = EDGE_LOOP ( 'NONE', ( #22 ) ) ;
#201 = CIRCLE ( 'NONE', #194, 0.4599999999999994094 ) ;
#202 = FACE_OUTER_BOUND ( 'NONE', #59, .T. ) ;
#203 = ADVANCED_BREP_SHAPE_REPRESENTATION ( '200729', ( #179, #72, #217 ), #56 ) ;
#204 = ORIENTED_EDGE ( 'NONE', *, *, #161, .F. ) ;
#205 = DIRECTION ( 'NONE',  ( 0.0000000000000000000, 1.000000000000000000, 0.0000000000000000000 ) ) ;
#206 = ORIENTED_EDGE ( 'NONE', *, *, #244, .F. ) ;
#207 = CALENDAR_DATE ( 2021, 1, 12 ) ;
#208 = FACE_OUTER_BOUND ( 'NONE', #155, .T. ) ;
#209 = CARTESIAN_POINT ( 'NONE',  ( 3.491481338843133355E-14, -1.301042606982605321E-15, 10.00000000000000000 ) ) ;
#210 = CLOSED_SHELL ( 'NONE', ( #274, #267, #239, #7 ) ) ;
#211 = CC_DESIGN_APPROVAL ( #196, ( #3 ) ) ;
#212 = DIRECTION ( 'NONE',  ( 4.275831445896958607E-31, 1.000000000000000000, 1.224646799147353207E-16 ) ) ;
#213 = DIRECTION ( 'NONE',  ( 0.0000000000000000000, 1.000000000000000000, 0.0000000000000000000 ) ) ;
#214 = CARTESIAN_POINT ( 'NONE',  ( 1.745740669421566678E-14, -6.123233995736766282E-16, 5.000000000000000000 ) ) ;
#215 = ADVANCED_FACE ( 'NONE', ( #47, #93 ), #143, .T. ) ;
#216 = FACE_OUTER_BOUND ( 'NONE', #5, .T. ) ;
#217 = AXIS2_PLACEMENT_3D ( 'NONE', #50, #74, #100 ) ;
#218 = PERSON ( 'UNSPECIFIED', 'UNSPECIFIED', 'UNSPECIFIED', ('UNSPECIFIED'), ('UNSPECIFIED'), ('UNSPECIFIED') ) ;
#219 = PERSON_AND_ORGANIZATION ( #218, #242 ) ;
#220 = EDGE_CURVE ( 'NONE', #268, #268, #222, .T. ) ;
#221 = VERTEX_POINT ( 'NONE', #169 ) ;
#222 = CIRCLE ( 'NONE', #299, 0.4600000000000000200 ) ;
#223 =( LENGTH_UNIT ( ) NAMED_UNIT ( * ) SI_UNIT ( .MILLI., .METRE. ) );
#224 = PERSON_AND_ORGANIZATION ( #218, #242 ) ;
#225 = ORIENTED_EDGE ( 'NONE', *, *, #175, .T. ) ;
#226 = CALENDAR_DATE ( 2021, 1, 12 ) ;
#227 = AXIS2_PLACEMENT_3D ( 'NONE', #162, #142, #212 ) ;
#228 = EDGE_LOOP ( 'NONE', ( #109 ) ) ;
#229 = DIRECTION ( 'NONE',  ( 0.0000000000000000000, 1.000000000000000000, 0.0000000000000000000 ) ) ;
#230 = CARTESIAN_POINT ( 'NONE',  ( 1.745740669421566678E-14, 3.449447500122264150E-33, 5.000000000000000000 ) ) ;
#231 = CIRCLE ( 'NONE', #105, 0.4503844939755798360 ) ;
#232 = LOCAL_TIME ( 11, 39, 49.00000000000000000, #90 ) ;
#233 = DIRECTION ( 'NONE',  ( 3.491481338843133355E-15, -1.224646799147353207E-16, 1.000000000000000000 ) ) ;
#234 = ORIENTED_EDGE ( 'NONE', *, *, #190, .T. ) ;
#235 = DIRECTION ( 'NONE',  ( -3.491481338843133355E-15, 1.224646799147353207E-16, -1.000000000000000000 ) ) ;
#236 = CIRCLE ( 'NONE', #158, 1.499999999999997335 ) ;
#237 = DIRECTION ( 'NONE',  ( 3.491481338843133355E-15, -1.224646799147353207E-16, 1.000000000000000000 ) ) ;
#238 = DIRECTION ( 'NONE',  ( -3.491481338843133355E-15, 1.224646799147353207E-16, -1.000000000000000000 ) ) ;
#239 = ADVANCED_FACE ( 'NONE', ( #266, #139 ), #289, .T. ) ;
#240 = DIRECTION ( 'NONE',  ( -3.491481338843133355E-15, 1.224646799147353207E-16, -1.000000000000000000 ) ) ;
#241 = PLANE ( 'NONE',  #110 ) ;
#242 = ORGANIZATION ( 'UNSPECIFIED', 'UNSPECIFIED', '' ) ;
#243 = VERTEX_POINT ( 'NONE', #102 ) ;
#244 = EDGE_CURVE ( 'NONE', #170, #170, #236, .T. ) ;
#245 = CALENDAR_DATE ( 2021, 1, 12 ) ;
#246 = CARTESIAN_POINT ( 'NONE',  ( 1.316288464743861212E-13, 1.499999999999998668, 37.69999999999999574 ) ) ;
#247 = AXIS2_PLACEMENT_3D ( 'NONE', #133, #6, #187 ) ;
#248 = AXIS2_PLACEMENT_3D ( 'NONE', #287, #119, #193 ) ;
#249 = DATE_TIME_ROLE ( 'creation_date' ) ;
#250 = CC_DESIGN_PERSON_AND_ORGANIZATION_ASSIGNMENT ( #39, #1, ( #3 ) ) ;
#251 = DATE_AND_TIME ( #226, #29 ) ;
#252 = ORIENTED_EDGE ( 'NONE', *, *, #190, .F. ) ;
#253 = APPROVAL_PERSON_ORGANIZATION ( #219, #16, #254 ) ;
#254 = APPROVAL_ROLE ( '' ) ;
#255 = DIRECTION ( 'NONE',  ( -4.275831445896958607E-31, -1.000000000000000000, -1.224646799147353207E-16 ) ) ;
#256 = EDGE_LOOP ( 'NONE', ( #134 ) ) ;
#257 = APPROVAL_ROLE ( '' ) ;
#258 = EDGE_LOOP ( 'NONE', ( #298 ) ) ;
#259 = AXIS2_PLACEMENT_3D ( 'NONE', #114, #12, #43 ) ;
#260 = ORIENTED_EDGE ( 'NONE', *, *, #175, .F. ) ;
#261 = CARTESIAN_POINT ( 'NONE',  ( 0.0000000000000000000, 0.0000000000000000000, 0.0000000000000000000 ) ) ;
#262 = DIRECTION ( 'NONE',  ( 0.0000000000000000000, 1.000000000000000000, 0.0000000000000000000 ) ) ;
#263 = CIRCLE ( 'NONE', #259, 1.200000000000003286 ) ;
#264 = DIRECTION ( 'NONE',  ( 0.0000000000000000000, -1.000000000000000000, 0.0000000000000000000 ) ) ;
#265 = DIRECTION ( 'NONE',  ( 4.275831445896958607E-31, 1.000000000000000000, 1.224646799147353207E-16 ) ) ;
#266 = FACE_OUTER_BOUND ( 'NONE', #130, .T. ) ;
#267 = ADVANCED_FACE ( 'NONE', ( #44, #96 ), #41, .T. ) ;
#268 = VERTEX_POINT ( 'NONE', #103 ) ;
#269 = APPLICATION_CONTEXT ( 'configuration controlled 3d designs of mechanical parts and assemblies' ) ;
#270 = CARTESIAN_POINT ( 'NONE',  ( 5.691101207231111931E-14, 1.499999999999995559, 16.29996169223920433 ) ) ;
#271 = PERSON_AND_ORGANIZATION ( #218, #242 ) ;
#272 = EDGE_LOOP ( 'NONE', ( #225 ) ) ;
#273 = APPROVAL_PERSON_ORGANIZATION ( #132, #196, #257 ) ;
#274 = ADVANCED_FACE ( 'NONE', ( #68 ), #241, .F. ) ;
#275 =( NAMED_UNIT ( * ) SI_UNIT ( $, .STERADIAN. ) SOLID_ANGLE_UNIT ( ) );
#276 = EDGE_LOOP ( 'NONE', ( #204 ) ) ;
#277 = EDGE_CURVE ( 'NONE', #243, #243, #88, .T. ) ;
#278 = ORIENTED_EDGE ( 'NONE', *, *, #220, .T. ) ;
#279 = CIRCLE ( 'NONE', #33, 0.4600000000000000200 ) ;
#280 = AXIS2_PLACEMENT_3D ( 'NONE', #8, #189, #118 ) ;
#281 = DIRECTION ( 'NONE',  ( 3.491481338843133355E-15, -1.224646799147353207E-16, 1.000000000000000000 ) ) ;
#282 = ORIENTED_EDGE ( 'NONE', *, *, #104, .T. ) ;
#283 = SECURITY_CLASSIFICATION_LEVEL ( 'unclassified' ) ;
#284 = FACE_OUTER_BOUND ( 'NONE', #84, .T. ) ;
#285 = ADVANCED_FACE ( 'NONE', ( #192, #98 ), #120, .T. ) ;
#286 = FACE_OUTER_BOUND ( 'NONE', #91, .T. ) ;
#287 = CARTESIAN_POINT ( 'NONE',  ( 6.982962677686265724E-16, -2.449293598294705921E-17, 0.1999999999999999556 ) ) ;
#288 = CARTESIAN_POINT ( 'NONE',  ( 1.326762908760390423E-13, -4.653657836759941941E-15, 38.00000000000000000 ) ) ;
#289 = CYLINDRICAL_SURFACE ( 'NONE', #45, 0.4599999999999996869 ) ;
#290 = DIRECTION ( 'NONE',  ( -3.491481338843133355E-15, 1.224646799147353207E-16, -1.000000000000000000 ) ) ;
#291 = EDGE_LOOP ( 'NONE', ( #40 ) ) ;
#292 = AXIS2_PLACEMENT_3D ( 'NONE', #156, #233, #255 ) ;
#293 = DATE_AND_TIME ( #296, #180 ) ;
#294 = TOROIDAL_SURFACE ( 'NONE', #173, 2.419999999999999929, 2.000000000000000888 ) ;
#295 = VERTEX_POINT ( 'NONE', #167 ) ;
#296 = CALENDAR_DATE ( 2021, 1, 12 ) ;
#297 = APPLICATION_PROTOCOL_DEFINITION ( 'international standard', 'config_control_design', 1994, #123 ) ;
#298 = ORIENTED_EDGE ( 'NONE', *, *, #95, .T. ) ;
#299 = AXIS2_PLACEMENT_3D ( 'NONE', #214, #240, #262 ) ;
#300 = ORIENTED_EDGE ( 'NONE', *, *, #220, .F. ) ;
#301 = ADVANCED_FACE ( 'NONE', ( #49 ), #144, .F. ) ;
#302 = PERSON_AND_ORGANIZATION ( #218, #242 ) ;
#303 = EDGE_LOOP ( 'NONE', ( #20 ) ) ;
ENDSEC;
END-ISO-10303-21;
