ISO-10303-21;
HEADER;
FILE_DESCRIPTION (( 'STEP AP203' ),
    '1' );
FILE_NAME ('200728.step',
    '2021-12-01T10:39:49',
    ( '' ),
    ( '' ),
    'SwSTEP 2.0',
    'SolidWorks 2019',
    '' );
FILE_SCHEMA (( 'CONFIG_CONTROL_DESIGN' ));
ENDSEC;

DATA;
#1 = EDGE_CURVE ( 'NONE', #77, #77, #197, .T. ) ;
#2 = CARTESIAN_POINT ( 'NONE',  ( 0.0000000000000000000, 0.0000000000000000000, 0.0000000000000000000 ) ) ;
#3 = CC_DESIGN_APPROVAL ( #176, ( #283 ) ) ;
#4 = APPROVAL_STATUS ( 'not_yet_approved' ) ;
#5 = COORDINATED_UNIVERSAL_TIME_OFFSET ( 1, 0, .AHEAD. ) ;
#6 = CC_DESIGN_DATE_AND_TIME_ASSIGNMENT ( #251, #241, ( #257 ) ) ;
#7 = CIRCLE ( 'NONE', #32, 1.500000000000003331 ) ;
#8 = DATE_AND_TIME ( #222, #177 ) ;
#9 = EDGE_LOOP ( 'NONE', ( #228 ) ) ;
#10 = EDGE_LOOP ( 'NONE', ( #172 ) ) ;
#11 = ADVANCED_FACE ( 'NONE', ( #204, #86 ), #56, .T. ) ;
#12 = DATE_AND_TIME ( #30, #83 ) ;
#13 = ORIENTED_EDGE ( 'NONE', *, *, #156, .T. ) ;
#14 = APPROVAL_STATUS ( 'not_yet_approved' ) ;
#15 = EDGE_LOOP ( 'NONE', ( #113 ) ) ;
#16 = EDGE_LOOP ( 'NONE', ( #155 ) ) ;
#17 = CARTESIAN_POINT ( 'NONE',  ( 1.326762908760390423E-13, 8.998558695971103225E-33, 38.00000000000000000 ) ) ;
#18 =( GEOMETRIC_REPRESENTATION_CONTEXT ( 3 ) GLOBAL_UNCERTAINTY_ASSIGNED_CONTEXT ( ( #146 ) ) GLOBAL_UNIT_ASSIGNED_CONTEXT ( ( #215, #74, #123 ) ) REPRESENTATION_CONTEXT ( 'NONE', 'WORKASPACE' ) );
#19 = DIRECTION ( 'NONE',  ( 3.491481338843133355E-15, -1.224646799147353207E-16, 1.000000000000000000 ) ) ;
#20 = DIRECTION ( 'NONE',  ( 0.0000000000000000000, 1.000000000000000000, 0.0000000000000000000 ) ) ;
#21 = ADVANCED_FACE ( 'NONE', ( #59, #85 ), #233, .T. ) ;
#22 = DIRECTION ( 'NONE',  ( 0.0000000000000000000, 1.000000000000000000, 0.0000000000000000000 ) ) ;
#23 = DIRECTION ( 'NONE',  ( 0.0000000000000000000, 1.000000000000000000, 0.0000000000000000000 ) ) ;
#24 = FACE_OUTER_BOUND ( 'NONE', #114, .T. ) ;
#25 = CARTESIAN_POINT ( 'NONE',  ( 1.316288464743861212E-13, 1.499999999999998668, 37.69999999999999574 ) ) ;
#26 = CC_DESIGN_APPROVAL ( #260, ( #257 ) ) ;
#27 = LOCAL_TIME ( 11, 39, 49.00000000000000000, #287 ) ;
#28 = PERSON_AND_ORGANIZATION_ROLE ( 'design_owner' ) ;
#29 = VERTEX_POINT ( 'NONE', #25 ) ;
#30 = CALENDAR_DATE ( 2021, 1, 12 ) ;
#31 = EDGE_LOOP ( 'NONE', ( #269 ) ) ;
#32 = AXIS2_PLACEMENT_3D ( 'NONE', #254, #236, #23 ) ;
#33 = PERSON_AND_ORGANIZATION_ROLE ( 'classification_officer' ) ;
#34 = CC_DESIGN_PERSON_AND_ORGANIZATION_ASSIGNMENT ( #75, #28, ( #145 ) ) ;
#35 = PLANE ( 'NONE',  #274 ) ;
#36 = PERSON_AND_ORGANIZATION ( #216, #100 ) ;
#37 = ORIENTED_EDGE ( 'NONE', *, *, #98, .F. ) ;
#38 = AXIS2_PLACEMENT_3D ( 'NONE', #136, #275, #20 ) ;
#39 = EDGE_LOOP ( 'NONE', ( #151 ) ) ;
#40 = APPROVAL ( #14, 'UNSPECIFIED' ) ;
#41 = FACE_OUTER_BOUND ( 'NONE', #246, .T. ) ;
#42 = CARTESIAN_POINT ( 'NONE',  ( 3.612739213212769111E-14, -1.267178336138866772E-15, 10.34729635533384595 ) ) ;
#43 = PRODUCT_DEFINITION_FORMATION_WITH_SPECIFIED_SOURCE ( 'ANY', '', #145, .NOT_KNOWN. ) ;
#44 = CARTESIAN_POINT ( 'NONE',  ( -2.483657362733025561E-31, 8.711497339572093896E-33, -7.113477408863826512E-17 ) ) ;
#45 = FACE_OUTER_BOUND ( 'NONE', #10, .T. ) ;
#46 = AXIS2_PLACEMENT_3D ( 'NONE', #63, #19, #276 ) ;
#47 = CARTESIAN_POINT ( 'NONE',  ( 0.0000000000000000000, 0.0000000000000000000, 0.0000000000000000000 ) ) ;
#48 = CARTESIAN_POINT ( 'NONE',  ( -9.463679131915808972E-32, 0.3595299461620758974, -2.710505431213761701E-17 ) ) ;
#49 = VERTEX_POINT ( 'NONE', #265 ) ;
#50 = AXIS2_PLACEMENT_3D ( 'NONE', #271, #80, #180 ) ;
#51 = APPLICATION_PROTOCOL_DEFINITION ( 'international standard', 'config_control_design', 1994, #129 ) ;
#52 = CALENDAR_DATE ( 2021, 1, 12 ) ;
#53 = EDGE_LOOP ( 'NONE', ( #55 ) ) ;
#54 = DATE_TIME_ROLE ( 'creation_date' ) ;
#55 = ORIENTED_EDGE ( 'NONE', *, *, #62, .T. ) ;
#56 = CONICAL_SURFACE ( 'NONE', #95, 1.499999999999997335, 0.1745329251994260644 ) ;
#57 = FACE_OUTER_BOUND ( 'NONE', #31, .T. ) ;
#58 = PERSON_AND_ORGANIZATION ( #216, #100 ) ;
#59 = FACE_OUTER_BOUND ( 'NONE', #107, .T. ) ;
#60 = ORIENTED_EDGE ( 'NONE', *, *, #211, .F. ) ;
#61 = AXIS2_PLACEMENT_3D ( 'NONE', #188, #134, #117 ) ;
#62 = EDGE_CURVE ( 'NONE', #49, #49, #227, .T. ) ;
#63 = CARTESIAN_POINT ( 'NONE',  ( 1.745740669421566678E-14, 3.561929483821902924E-33, 5.000000000000000000 ) ) ;
#64 = FACE_OUTER_BOUND ( 'NONE', #267, .T. ) ;
#65 = CARTESIAN_POINT ( 'NONE',  ( 5.681200619910854129E-14, -1.992696932698792531E-15, 16.27160528314111332 ) ) ;
#66 = ADVANCED_FACE ( 'NONE', ( #57 ), #35, .T. ) ;
#67 = TOROIDAL_SURFACE ( 'NONE', #61, 2.425000000000000266, 2.000000000000000444 ) ;
#68 = FACE_OUTER_BOUND ( 'NONE', #9, .T. ) ;
#69 = DIRECTION ( 'NONE',  ( -3.491481338843133355E-15, 1.224646799147353207E-16, -1.000000000000000000 ) ) ;
#70 = EDGE_CURVE ( 'NONE', #125, #125, #132, .T. ) ;
#71 = APPROVAL_DATE_TIME ( #97, #176 ) ;
#72 = AXIS2_PLACEMENT_3D ( 'NONE', #298, #94, #96 ) ;
#73 = CYLINDRICAL_SURFACE ( 'NONE', #244, 0.4749999999999997558 ) ;
#74 =( NAMED_UNIT ( * ) PLANE_ANGLE_UNIT ( ) SI_UNIT ( $, .RADIAN. ) );
#75 = PERSON_AND_ORGANIZATION ( #216, #100 ) ;
#76 = EDGE_CURVE ( 'NONE', #237, #237, #153, .T. ) ;
#77 = VERTEX_POINT ( 'NONE', #194 ) ;
#78 = AXIS2_PLACEMENT_3D ( 'NONE', #65, #161, #22 ) ;
#79 = PERSON_AND_ORGANIZATION_ROLE ( 'design_supplier' ) ;
#80 = DIRECTION ( 'NONE',  ( -3.491481338843133355E-15, 1.224646799147353207E-16, -1.000000000000000000 ) ) ;
#81 = ORIENTED_EDGE ( 'NONE', *, *, #1, .F. ) ;
#82 = CARTESIAN_POINT ( 'NONE',  ( 1.775977784784342036E-14, -6.229291519609259858E-16, 5.086602540378446058 ) ) ;
#83 = LOCAL_TIME ( 11, 39, 49.00000000000000000, #268 ) ;
#84 = PERSON_AND_ORGANIZATION ( #216, #100 ) ;
#85 = FACE_BOUND ( 'NONE', #16, .T. ) ;
#86 = FACE_OUTER_BOUND ( 'NONE', #243, .T. ) ;
#87 = CC_DESIGN_PERSON_AND_ORGANIZATION_ASSIGNMENT ( #245, #79, ( #43 ) ) ;
#88 = MANIFOLD_SOLID_BREP ( 'Corps-Déplacer/Copier1[1]', #286 ) ;
#89 = DIRECTION ( 'NONE',  ( 4.275831445896958607E-31, 1.000000000000000000, 1.224646799147353207E-16 ) ) ;
#90 = CONICAL_SURFACE ( 'NONE', #296, 1.200000000000003286, 0.7853981633974453924 ) ;
#91 = DIRECTION ( 'NONE',  ( -4.275831445896958607E-31, -1.000000000000000000, -1.224646799147353207E-16 ) ) ;
#92 = ADVANCED_FACE ( 'NONE', ( #163, #210 ), #138, .T. ) ;
#93 = FACE_OUTER_BOUND ( 'NONE', #15, .T. ) ;
#94 = DIRECTION ( 'NONE',  ( -3.491481338843133355E-15, 1.224646799147353207E-16, -1.000000000000000000 ) ) ;
#95 = AXIS2_PLACEMENT_3D ( 'NONE', #290, #181, #273 ) ;
#96 = DIRECTION ( 'NONE',  ( 0.0000000000000000000, 1.000000000000000000, 0.0000000000000000000 ) ) ;
#97 = DATE_AND_TIME ( #240, #137 ) ;
#98 = EDGE_CURVE ( 'NONE', #29, #29, #7, .T. ) ;
#99 = CYLINDRICAL_SURFACE ( 'NONE', #116, 0.4249999999999996558 ) ;
#100 = ORGANIZATION ( 'UNSPECIFIED', 'UNSPECIFIED', '' ) ;
#101 = EDGE_CURVE ( 'NONE', #261, #261, #183, .T. ) ;
#102 = APPROVAL_ROLE ( '' ) ;
#103 = APPROVAL_DATE_TIME ( #12, #40 ) ;
#104 = AXIS2_PLACEMENT_3D ( 'NONE', #119, #253, #165 ) ;
#105 = ADVANCED_FACE ( 'NONE', ( #184 ), #258, .F. ) ;
#106 = SECURITY_CLASSIFICATION_LEVEL ( 'unclassified' ) ;
#107 = EDGE_LOOP ( 'NONE', ( #60 ) ) ;
#108 = DIRECTION ( 'NONE',  ( 0.0000000000000000000, 1.000000000000000000, 0.0000000000000000000 ) ) ;
#109 = PERSON_AND_ORGANIZATION_ROLE ( 'creator' ) ;
#110 = ORIENTED_EDGE ( 'NONE', *, *, #70, .T. ) ;
#111 = CC_DESIGN_SECURITY_CLASSIFICATION ( #257, ( #43 ) ) ;
#112 = CC_DESIGN_DATE_AND_TIME_ASSIGNMENT ( #8, #54, ( #283 ) ) ;
#113 = ORIENTED_EDGE ( 'NONE', *, *, #76, .F. ) ;
#114 = EDGE_LOOP ( 'NONE', ( #81 ) ) ;
#115 = DIRECTION ( 'NONE',  ( 3.491481338843133355E-15, -1.224646799147353207E-16, 1.000000000000000000 ) ) ;
#116 = AXIS2_PLACEMENT_3D ( 'NONE', #2, #285, #263 ) ;
#117 = DIRECTION ( 'NONE',  ( 4.275831445896958607E-31, 1.000000000000000000, 1.224646799147353207E-16 ) ) ;
#118 = CARTESIAN_POINT ( 'NONE',  ( 0.0000000000000000000, 0.0000000000000000000, 0.0000000000000000000 ) ) ;
#119 = CARTESIAN_POINT ( 'NONE',  ( 3.491481338843133355E-14, -1.224646799147353256E-15, 10.00000000000000000 ) ) ;
#120 = AXIS2_PLACEMENT_3D ( 'NONE', #17, #69, #259 ) ;
#121 = DIRECTION ( 'NONE',  ( -3.491481338843133355E-15, 1.224646799147353207E-16, -1.000000000000000000 ) ) ;
#122 = VERTEX_POINT ( 'NONE', #217 ) ;
#123 =( NAMED_UNIT ( * ) SI_UNIT ( $, .STERADIAN. ) SOLID_ANGLE_UNIT ( ) );
#124 = AXIS2_PLACEMENT_3D ( 'NONE', #118, #121, #89 ) ;
#125 = VERTEX_POINT ( 'NONE', #48 ) ;
#126 = APPLICATION_PROTOCOL_DEFINITION ( 'international standard', 'config_control_design', 1994, #225 ) ;
#127 = AXIS2_PLACEMENT_3D ( 'NONE', #185, #277, #279 ) ;
#128 = ORIENTED_EDGE ( 'NONE', *, *, #190, .F. ) ;
#129 = APPLICATION_CONTEXT ( 'configuration controlled 3d designs of mechanical parts and assemblies' ) ;
#130 = ORIENTED_EDGE ( 'NONE', *, *, #101, .T. ) ;
#131 = EDGE_LOOP ( 'NONE', ( #224 ) ) ;
#132 = CIRCLE ( 'NONE', #300, 0.3595299461620758974 ) ;
#133 = DIRECTION ( 'NONE',  ( -3.491481338843133355E-15, 1.224646799147353207E-16, -1.000000000000000000 ) ) ;
#134 = DIRECTION ( 'NONE',  ( -3.491481338843133355E-15, 1.224646799147353207E-16, -1.000000000000000000 ) ) ;
#135 = EDGE_CURVE ( 'NONE', #147, #147, #170, .T. ) ;
#136 = CARTESIAN_POINT ( 'NONE',  ( 1.745740669421566678E-14, -6.123233995736766282E-16, 5.000000000000000000 ) ) ;
#137 = LOCAL_TIME ( 11, 39, 49.00000000000000000, #195 ) ;
#138 = CYLINDRICAL_SURFACE ( 'NONE', #124, 1.500000000000000444 ) ;
#139 = DIRECTION ( 'NONE',  ( 4.054589356604711945E-31, 1.000000000000000000, 1.141265444721584990E-16 ) ) ;
#140 = CC_DESIGN_PERSON_AND_ORGANIZATION_ASSIGNMENT ( #152, #109, ( #43 ) ) ;
#141 = FACE_BOUND ( 'NONE', #53, .T. ) ;
#142 = AXIS2_PLACEMENT_3D ( 'NONE', #235, #115, #213 ) ;
#143 = CARTESIAN_POINT ( 'NONE',  ( 1.745740669421566678E-14, 0.4749999999999994227, 5.000000000000000000 ) ) ;
#144 = ADVANCED_FACE ( 'NONE', ( #41 ), #256, .F. ) ;
#145 = PRODUCT ( '200728', '200728', '', ( #193 ) ) ;
#146 = UNCERTAINTY_MEASURE_WITH_UNIT (LENGTH_MEASURE( 1.000000000000000082E-05 ), #215, 'distance_accuracy_value', 'NONE');
#147 = VERTEX_POINT ( 'NONE', #143 ) ;
#148 = AXIS2_PLACEMENT_3D ( 'NONE', #207, #247, #108 ) ;
#149 = CARTESIAN_POINT ( 'NONE',  ( 0.0000000000000000000, 0.0000000000000000000, 0.0000000000000000000 ) ) ;
#150 = APPROVAL_DATE_TIME ( #200, #260 ) ;
#151 = ORIENTED_EDGE ( 'NONE', *, *, #156, .F. ) ;
#152 = PERSON_AND_ORGANIZATION ( #216, #100 ) ;
#153 = CIRCLE ( 'NONE', #104, 0.4249999999999999889 ) ;
#154 = EDGE_LOOP ( 'NONE', ( #13 ) ) ;
#155 = ORIENTED_EDGE ( 'NONE', *, *, #1, .T. ) ;
#156 = EDGE_CURVE ( 'NONE', #191, #191, #278, .T. ) ;
#157 = CLOSED_SHELL ( 'NONE', ( #105, #242, #255, #66 ) ) ;
#158 = EDGE_LOOP ( 'NONE', ( #130 ) ) ;
#159 = DIRECTION ( 'NONE',  ( -3.491481338843133355E-15, 1.224646799147353207E-16, -1.000000000000000000 ) ) ;
#160 = DIRECTION ( 'NONE',  ( 4.275831445896958607E-31, 1.000000000000000000, 1.224646799147353207E-16 ) ) ;
#161 = DIRECTION ( 'NONE',  ( -3.491481338843133355E-15, 1.224646799147353207E-16, -1.000000000000000000 ) ) ;
#162 = APPROVAL_PERSON_ORGANIZATION ( #84, #260, #293 ) ;
#163 = FACE_OUTER_BOUND ( 'NONE', #252, .T. ) ;
#164 = CC_DESIGN_PERSON_AND_ORGANIZATION_ASSIGNMENT ( #36, #173, ( #283 ) ) ;
#165 = DIRECTION ( 'NONE',  ( 0.0000000000000000000, 1.000000000000000000, 0.0000000000000000000 ) ) ;
#166 = CIRCLE ( 'NONE', #72, 0.4749999999999999778 ) ;
#167 = CARTESIAN_POINT ( 'NONE',  ( 6.982962677686267697E-16, 0.4749999999999994227, 0.2000000000000000111 ) ) ;
#168 = DIRECTION ( 'NONE',  ( -3.491481338843133355E-15, 1.224646799147353207E-16, -1.000000000000000000 ) ) ;
#169 = CARTESIAN_POINT ( 'NONE',  ( 3.491481338843133355E-14, 0.4249999999999987121, 10.00000000000000000 ) ) ;
#170 = CIRCLE ( 'NONE', #38, 0.4749999999999999778 ) ;
#171 = COORDINATED_UNIVERSAL_TIME_OFFSET ( 1, 0, .AHEAD. ) ;
#172 = ORIENTED_EDGE ( 'NONE', *, *, #135, .T. ) ;
#173 = PERSON_AND_ORGANIZATION_ROLE ( 'creator' ) ;
#174 = ORIENTED_EDGE ( 'NONE', *, *, #76, .T. ) ;
#175 = SHAPE_DEFINITION_REPRESENTATION ( #220, #281 ) ;
#176 = APPROVAL ( #4, 'UNSPECIFIED' ) ;
#177 = LOCAL_TIME ( 11, 39, 49.00000000000000000, #5 ) ;
#178 = ORIENTED_EDGE ( 'NONE', *, *, #98, .T. ) ;
#179 = APPROVAL_STATUS ( 'not_yet_approved' ) ;
#180 = DIRECTION ( 'NONE',  ( 0.0000000000000000000, 1.000000000000000000, 0.0000000000000000000 ) ) ;
#181 = DIRECTION ( 'NONE',  ( 3.491481338843133355E-15, -1.224646799147353207E-16, 1.000000000000000000 ) ) ;
#182 = DIRECTION ( 'NONE',  ( 0.0000000000000000000, 1.000000000000000000, 0.0000000000000000000 ) ) ;
#183 = CIRCLE ( 'NONE', #209, 0.4553844939755807286 ) ;
#184 = FACE_OUTER_BOUND ( 'NONE', #205, .T. ) ;
#185 = CARTESIAN_POINT ( 'NONE',  ( 6.982962677686265724E-16, -2.449293598294705921E-17, 0.1999999999999999556 ) ) ;
#186 = FACE_BOUND ( 'NONE', #201, .T. ) ;
#187 = MANIFOLD_SOLID_BREP ( 'Corps-Déplacer/Copier1[2]', #157 ) ;
#188 = CARTESIAN_POINT ( 'NONE',  ( 3.491481338843133355E-14, -1.301042606982605321E-15, 10.00000000000000000 ) ) ;
#189 = DIRECTION ( 'NONE',  ( 4.275831445896957731E-31, 1.000000000000000000, 1.224646799147353207E-16 ) ) ;
#190 = EDGE_CURVE ( 'NONE', #122, #122, #221, .T. ) ;
#191 = VERTEX_POINT ( 'NONE', #167 ) ;
#192 = AXIS2_PLACEMENT_3D ( 'NONE', #149, #302, #239 ) ;
#193 = MECHANICAL_CONTEXT ( 'NONE', #129, 'mechanical' ) ;
#194 = CARTESIAN_POINT ( 'NONE',  ( 1.775977784784342036E-14, 0.4249999999999987121, 5.086602540378446058 ) ) ;
#195 = COORDINATED_UNIVERSAL_TIME_OFFSET ( 1, 0, .AHEAD. ) ;
#196 = ADVANCED_FACE ( 'NONE', ( #64, #141 ), #90, .T. ) ;
#197 = CIRCLE ( 'NONE', #148, 0.4249999999999993228 ) ;
#198 = APPROVAL_ROLE ( '' ) ;
#199 = DESIGN_CONTEXT ( 'detailed design', #225, 'design' ) ;
#200 = DATE_AND_TIME ( #52, #27 ) ;
#201 = EDGE_LOOP ( 'NONE', ( #292 ) ) ;
#202 = ADVANCED_FACE ( 'NONE', ( #93, #299 ), #67, .F. ) ;
#203 = PERSON_AND_ORGANIZATION ( #216, #100 ) ;
#204 = FACE_BOUND ( 'NONE', #131, .T. ) ;
#205 = EDGE_LOOP ( 'NONE', ( #110 ) ) ;
#206 = ORIENTED_EDGE ( 'NONE', *, *, #211, .T. ) ;
#207 = CARTESIAN_POINT ( 'NONE',  ( 1.775977784784342036E-14, -6.229291519609259858E-16, 5.086602540378446058 ) ) ;
#208 = FACE_OUTER_BOUND ( 'NONE', #39, .T. ) ;
#209 = AXIS2_PLACEMENT_3D ( 'NONE', #42, #294, #182 ) ;
#210 = FACE_OUTER_BOUND ( 'NONE', #223, .T. ) ;
#211 = EDGE_CURVE ( 'NONE', #282, #282, #166, .T. ) ;
#212 = CARTESIAN_POINT ( 'NONE',  ( 1.326762908760390423E-13, -4.653657836759941941E-15, 38.00000000000000000 ) ) ;
#213 = DIRECTION ( 'NONE',  ( -4.275831445896958607E-31, -1.000000000000000000, -1.224646799147353207E-16 ) ) ;
#214 = AXIS2_PLACEMENT_3D ( 'NONE', #232, #234, #139 ) ;
#215 =( LENGTH_UNIT ( ) NAMED_UNIT ( * ) SI_UNIT ( .MILLI., .METRE. ) );
#216 = PERSON ( 'UNSPECIFIED', 'UNSPECIFIED', 'UNSPECIFIED', ('UNSPECIFIED'), ('UNSPECIFIED'), ('UNSPECIFIED') ) ;
#217 = CARTESIAN_POINT ( 'NONE',  ( 5.681200619910854129E-14, 1.499999999999995559, 16.27160528314111332 ) ) ;
#218 = APPROVAL_PERSON_ORGANIZATION ( #203, #40, #198 ) ;
#219 = PERSON_AND_ORGANIZATION ( #216, #100 ) ;
#220 = PRODUCT_DEFINITION_SHAPE ( 'NONE', 'NONE',  #283 ) ;
#221 = CIRCLE ( 'NONE', #78, 1.499999999999997335 ) ;
#222 = CALENDAR_DATE ( 2021, 1, 12 ) ;
#223 = EDGE_LOOP ( 'NONE', ( #178 ) ) ;
#224 = ORIENTED_EDGE ( 'NONE', *, *, #101, .F. ) ;
#225 = APPLICATION_CONTEXT ( 'configuration controlled 3d designs of mechanical parts and assemblies' ) ;
#226 = CARTESIAN_POINT ( 'NONE',  ( 1.745740669421566678E-14, 3.561929483821902924E-33, 5.000000000000000000 ) ) ;
#227 = CIRCLE ( 'NONE', #50, 1.200000000000003286 ) ;
#228 = ORIENTED_EDGE ( 'NONE', *, *, #62, .F. ) ;
#229 = CC_DESIGN_PERSON_AND_ORGANIZATION_ASSIGNMENT ( #58, #33, ( #257 ) ) ;
#230 = DIRECTION ( 'NONE',  ( 0.0000000000000000000, 1.000000000000000000, 0.0000000000000000000 ) ) ;
#231 = FACE_OUTER_BOUND ( 'NONE', #154, .T. ) ;
#232 = CARTESIAN_POINT ( 'NONE',  ( 6.982962677686265724E-16, -2.449293598294705921E-17, 0.1999999999999999556 ) ) ;
#233 = CONICAL_SURFACE ( 'NONE', #264, 0.4249999999999993228, 0.5235987755982948189 ) ;
#234 = DIRECTION ( 'NONE',  ( -3.491481338843133355E-15, 1.224646799147353207E-16, -1.000000000000000000 ) ) ;
#235 = CARTESIAN_POINT ( 'NONE',  ( -1.241828681366512780E-31, 4.355748669786046948E-33, -3.556738704431913256E-17 ) ) ;
#236 = DIRECTION ( 'NONE',  ( -3.491481338843133355E-15, 1.224646799147353207E-16, -1.000000000000000000 ) ) ;
#237 = VERTEX_POINT ( 'NONE', #169 ) ;
#238 = CC_DESIGN_APPROVAL ( #40, ( #43 ) ) ;
#239 = DIRECTION ( 'NONE',  ( 1.000000000000000000, 0.0000000000000000000, 0.0000000000000000000 ) ) ;
#240 = CALENDAR_DATE ( 2021, 1, 12 ) ;
#241 = DATE_TIME_ROLE ( 'classification_date' ) ;
#242 = ADVANCED_FACE ( 'NONE', ( #186, #231 ), #250, .T. ) ;
#243 = EDGE_LOOP ( 'NONE', ( #289 ) ) ;
#244 = AXIS2_PLACEMENT_3D ( 'NONE', #47, #168, #189 ) ;
#245 = PERSON_AND_ORGANIZATION ( #216, #100 ) ;
#246 = EDGE_LOOP ( 'NONE', ( #206 ) ) ;
#247 = DIRECTION ( 'NONE',  ( -3.491481338843133355E-15, 1.224646799147353207E-16, -1.000000000000000000 ) ) ;
#248 = EDGE_LOOP ( 'NONE', ( #174 ) ) ;
#249 = ADVANCED_FACE ( 'NONE', ( #68 ), #280, .F. ) ;
#250 = CONICAL_SURFACE ( 'NONE', #127, 0.4749999999999994227, 0.5235987755982925984 ) ;
#251 = DATE_AND_TIME ( #266, #291 ) ;
#252 = EDGE_LOOP ( 'NONE', ( #128 ) ) ;
#253 = DIRECTION ( 'NONE',  ( -3.491481338843133355E-15, 1.224646799147353207E-16, -1.000000000000000000 ) ) ;
#254 = CARTESIAN_POINT ( 'NONE',  ( 1.316288464743861212E-13, -4.616918432785521081E-15, 37.69999999999999574 ) ) ;
#255 = ADVANCED_FACE ( 'NONE', ( #208, #45 ), #73, .T. ) ;
#256 = PLANE ( 'NONE',  #46 ) ;
#257 = SECURITY_CLASSIFICATION ( '', '', #106 ) ;
#258 = PLANE ( 'NONE',  #142 ) ;
#259 = DIRECTION ( 'NONE',  ( 4.275831445896958607E-31, 1.000000000000000000, 1.224646799147353207E-16 ) ) ;
#260 = APPROVAL ( #179, 'UNSPECIFIED' ) ;
#261 = VERTEX_POINT ( 'NONE', #284 ) ;
#262 = CARTESIAN_POINT ( 'NONE',  ( 1.745740669421566678E-14, 0.4749999999999994227, 5.000000000000000000 ) ) ;
#263 = DIRECTION ( 'NONE',  ( 4.275831445896958607E-31, 1.000000000000000000, 1.224646799147353207E-16 ) ) ;
#264 = AXIS2_PLACEMENT_3D ( 'NONE', #82, #133, #230 ) ;
#265 = CARTESIAN_POINT ( 'NONE',  ( 1.326762908760390423E-13, 1.199999999999998845, 38.00000000000000000 ) ) ;
#266 = CALENDAR_DATE ( 2021, 1, 12 ) ;
#267 = EDGE_LOOP ( 'NONE', ( #37 ) ) ;
#268 = COORDINATED_UNIVERSAL_TIME_OFFSET ( 1, 0, .AHEAD. ) ;
#269 = ORIENTED_EDGE ( 'NONE', *, *, #135, .F. ) ;
#270 = APPROVAL_PERSON_ORGANIZATION ( #219, #176, #102 ) ;
#271 = CARTESIAN_POINT ( 'NONE',  ( 1.326762908760390423E-13, -4.653657836759941941E-15, 38.00000000000000000 ) ) ;
#272 = DIRECTION ( 'NONE',  ( 3.491481338843133355E-15, -1.224646799147353207E-16, 1.000000000000000000 ) ) ;
#273 = DIRECTION ( 'NONE',  ( 0.0000000000000000000, -1.000000000000000000, 0.0000000000000000000 ) ) ;
#274 = AXIS2_PLACEMENT_3D ( 'NONE', #226, #272, #91 ) ;
#275 = DIRECTION ( 'NONE',  ( -3.491481338843133355E-15, 1.224646799147353207E-16, -1.000000000000000000 ) ) ;
#276 = DIRECTION ( 'NONE',  ( -4.275831445896958607E-31, -1.000000000000000000, -1.224646799147353207E-16 ) ) ;
#277 = DIRECTION ( 'NONE',  ( 3.491481338843133355E-15, -1.224646799147353207E-16, 1.000000000000000000 ) ) ;
#278 = CIRCLE ( 'NONE', #214, 0.4749999999999994227 ) ;
#279 = DIRECTION ( 'NONE',  ( -4.054589356604711945E-31, -1.000000000000000000, -1.141265444721584990E-16 ) ) ;
#280 = PLANE ( 'NONE',  #120 ) ;
#281 = ADVANCED_BREP_SHAPE_REPRESENTATION ( '200728', ( #88, #187, #192 ), #18 ) ;
#282 = VERTEX_POINT ( 'NONE', #262 ) ;
#283 = PRODUCT_DEFINITION ( 'UNKNOWN', '', #43, #199 ) ;
#284 = CARTESIAN_POINT ( 'NONE',  ( 3.612739213212769111E-14, 0.4553844939755795074, 10.34729635533384595 ) ) ;
#285 = DIRECTION ( 'NONE',  ( -3.491481338843133355E-15, 1.224646799147353207E-16, -1.000000000000000000 ) ) ;
#286 = CLOSED_SHELL ( 'NONE', ( #144, #21, #295, #202, #11, #92, #196, #249 ) ) ;
#287 = COORDINATED_UNIVERSAL_TIME_OFFSET ( 1, 0, .AHEAD. ) ;
#288 = PRODUCT_RELATED_PRODUCT_CATEGORY ( 'detail', '', ( #145 ) ) ;
#289 = ORIENTED_EDGE ( 'NONE', *, *, #190, .T. ) ;
#290 = CARTESIAN_POINT ( 'NONE',  ( 5.681200619910854129E-14, -1.992696932698792531E-15, 16.27160528314111332 ) ) ;
#291 = LOCAL_TIME ( 11, 39, 49.00000000000000000, #171 ) ;
#292 = ORIENTED_EDGE ( 'NONE', *, *, #70, .F. ) ;
#293 = APPROVAL_ROLE ( '' ) ;
#294 = DIRECTION ( 'NONE',  ( -3.491481338843133355E-15, 1.224646799147353207E-16, -1.000000000000000000 ) ) ;
#295 = ADVANCED_FACE ( 'NONE', ( #24, #303 ), #99, .T. ) ;
#296 = AXIS2_PLACEMENT_3D ( 'NONE', #212, #297, #301 ) ;
#297 = DIRECTION ( 'NONE',  ( -3.491481338843133355E-15, 1.224646799147353207E-16, -1.000000000000000000 ) ) ;
#298 = CARTESIAN_POINT ( 'NONE',  ( 1.745740669421566678E-14, -6.123233995736766282E-16, 5.000000000000000000 ) ) ;
#299 = FACE_OUTER_BOUND ( 'NONE', #158, .T. ) ;
#300 = AXIS2_PLACEMENT_3D ( 'NONE', #44, #159, #160 ) ;
#301 = DIRECTION ( 'NONE',  ( 0.0000000000000000000, 1.000000000000000000, 0.0000000000000000000 ) ) ;
#302 = DIRECTION ( 'NONE',  ( 0.0000000000000000000, 0.0000000000000000000, 1.000000000000000000 ) ) ;
#303 = FACE_OUTER_BOUND ( 'NONE', #248, .T. ) ;
ENDSEC;
END-ISO-10303-21;
