ISO-10303-21;
HEADER;
FILE_DESCRIPTION (( 'STEP AP203' ),
    '1' );
FILE_NAME ('200727.step',
    '2021-12-01T10:39:48',
    ( '' ),
    ( '' ),
    'SwSTEP 2.0',
    'SolidWorks 2019',
    '' );
FILE_SCHEMA (( 'CONFIG_CONTROL_DESIGN' ));
ENDSEC;

DATA;
#1 = EDGE_CURVE ( 'NONE', #58, #58, #168, .T. ) ;
#2 = AXIS2_PLACEMENT_3D ( 'NONE', #171, #77, #201 ) ;
#3 = DIRECTION ( 'NONE',  ( -3.491481338843133355E-15, 1.224646799147353207E-16, -1.000000000000000000 ) ) ;
#4 = CC_DESIGN_APPROVAL ( #173, ( #16 ) ) ;
#5 = DIRECTION ( 'NONE',  ( 4.275831445896958607E-31, 1.000000000000000000, 1.224646799147353207E-16 ) ) ;
#6 = FACE_OUTER_BOUND ( 'NONE', #19, .T. ) ;
#7 = CARTESIAN_POINT ( 'NONE',  ( 6.982962677686265724E-16, -2.449293598294705921E-17, 0.1999999999999999556 ) ) ;
#8 = ADVANCED_FACE ( 'NONE', ( #179, #132 ), #226, .T. ) ;
#9 = AXIS2_PLACEMENT_3D ( 'NONE', #59, #37, #57 ) ;
#10 = PLANE ( 'NONE',  #2 ) ;
#11 = PERSON_AND_ORGANIZATION ( #154, #176 ) ;
#12 = EDGE_CURVE ( 'NONE', #265, #265, #240, .T. ) ;
#13 = CARTESIAN_POINT ( 'NONE',  ( 3.612739213212769742E-14, 0.4753844939755786925, 10.34729635533384773 ) ) ;
#14 = AXIS2_PLACEMENT_3D ( 'NONE', #192, #78, #292 ) ;
#15 = ORIENTED_EDGE ( 'NONE', *, *, #207, .T. ) ;
#16 = PRODUCT_DEFINITION_FORMATION_WITH_SPECIFIED_SOURCE ( 'ANY', '', #159, .NOT_KNOWN. ) ;
#17 = EDGE_LOOP ( 'NONE', ( #272 ) ) ;
#18 = PERSON_AND_ORGANIZATION ( #154, #176 ) ;
#19 = EDGE_LOOP ( 'NONE', ( #303 ) ) ;
#20 = EDGE_CURVE ( 'NONE', #170, #170, #225, .T. ) ;
#21 = EDGE_LOOP ( 'NONE', ( #185 ) ) ;
#22 = DATE_AND_TIME ( #177, #27 ) ;
#23 = ORIENTED_EDGE ( 'NONE', *, *, #295, .T. ) ;
#24 = FACE_OUTER_BOUND ( 'NONE', #133, .T. ) ;
#25 = DIRECTION ( 'NONE',  ( 3.491481338843133355E-15, -1.224646799147353207E-16, 1.000000000000000000 ) ) ;
#26 = AXIS2_PLACEMENT_3D ( 'NONE', #190, #237, #284 ) ;
#27 = LOCAL_TIME ( 11, 39, 48.00000000000000000, #110 ) ;
#28 = DIRECTION ( 'NONE',  ( -3.491481338843133355E-15, 1.224646799147353207E-16, -1.000000000000000000 ) ) ;
#29 = DIRECTION ( 'NONE',  ( -3.491481338843133355E-15, 1.224646799147353207E-16, -1.000000000000000000 ) ) ;
#30 = FACE_OUTER_BOUND ( 'NONE', #250, .T. ) ;
#31 = CARTESIAN_POINT ( 'NONE',  ( 0.0000000000000000000, 0.3795299461620758597, 0.0000000000000000000 ) ) ;
#32 = CIRCLE ( 'NONE', #70, 1.200000000000003286 ) ;
#33 =( NAMED_UNIT ( * ) PLANE_ANGLE_UNIT ( ) SI_UNIT ( $, .RADIAN. ) );
#34 = CC_DESIGN_PERSON_AND_ORGANIZATION_ASSIGNMENT ( #11, #242, ( #159 ) ) ;
#35 = FACE_OUTER_BOUND ( 'NONE', #130, .T. ) ;
#36 = VERTEX_POINT ( 'NONE', #13 ) ;
#37 = DIRECTION ( 'NONE',  ( 0.0000000000000000000, 0.0000000000000000000, 1.000000000000000000 ) ) ;
#38 = ADVANCED_FACE ( 'NONE', ( #213 ), #234, .F. ) ;
#39 = PERSON_AND_ORGANIZATION ( #154, #176 ) ;
#40 = ORIENTED_EDGE ( 'NONE', *, *, #187, .F. ) ;
#41 = EDGE_LOOP ( 'NONE', ( #15 ) ) ;
#42 = AXIS2_PLACEMENT_3D ( 'NONE', #7, #261, #140 ) ;
#43 = ORIENTED_EDGE ( 'NONE', *, *, #249, .T. ) ;
#44 = DATE_AND_TIME ( #115, #149 ) ;
#45 = APPROVAL_ROLE ( '' ) ;
#46 = EDGE_LOOP ( 'NONE', ( #43 ) ) ;
#47 = AXIS2_PLACEMENT_3D ( 'NONE', #93, #29, #166 ) ;
#48 = FACE_OUTER_BOUND ( 'NONE', #17, .T. ) ;
#49 = DIRECTION ( 'NONE',  ( 3.890767564418663774E-31, 1.000000000000000000, 1.095153709581319154E-16 ) ) ;
#50 = DIRECTION ( 'NONE',  ( 0.0000000000000000000, 1.000000000000000000, 0.0000000000000000000 ) ) ;
#51 = APPLICATION_CONTEXT ( 'configuration controlled 3d designs of mechanical parts and assemblies' ) ;
#52 = CIRCLE ( 'NONE', #138, 1.500000000000003331 ) ;
#53 = FACE_BOUND ( 'NONE', #204, .T. ) ;
#54 = CARTESIAN_POINT ( 'NONE',  ( 0.0000000000000000000, 0.0000000000000000000, 0.0000000000000000000 ) ) ;
#55 = DIRECTION ( 'NONE',  ( 0.0000000000000000000, 1.000000000000000000, 0.0000000000000000000 ) ) ;
#56 = VERTEX_POINT ( 'NONE', #31 ) ;
#57 = DIRECTION ( 'NONE',  ( 1.000000000000000000, 0.0000000000000000000, 0.0000000000000000000 ) ) ;
#58 = VERTEX_POINT ( 'NONE', #150 ) ;
#59 = CARTESIAN_POINT ( 'NONE',  ( 0.0000000000000000000, 0.0000000000000000000, 0.0000000000000000000 ) ) ;
#60 = ADVANCED_FACE ( 'NONE', ( #75, #118 ), #158, .T. ) ;
#61 = PERSON_AND_ORGANIZATION ( #154, #176 ) ;
#62 = ADVANCED_FACE ( 'NONE', ( #30, #24 ), #191, .T. ) ;
#63 = DIRECTION ( 'NONE',  ( 0.0000000000000000000, 1.000000000000000000, 0.0000000000000000000 ) ) ;
#64 = AXIS2_PLACEMENT_3D ( 'NONE', #260, #233, #50 ) ;
#65 = EDGE_LOOP ( 'NONE', ( #40 ) ) ;
#66 = APPROVAL_STATUS ( 'not_yet_approved' ) ;
#67 = CARTESIAN_POINT ( 'NONE',  ( 1.745740669421566678E-14, -6.123233995736766282E-16, 5.000000000000000000 ) ) ;
#68 = PRODUCT_RELATED_PRODUCT_CATEGORY ( 'detail', '', ( #159 ) ) ;
#69 = DESIGN_CONTEXT ( 'detailed design', #51, 'design' ) ;
#70 = AXIS2_PLACEMENT_3D ( 'NONE', #98, #120, #215 ) ;
#71 = DIRECTION ( 'NONE',  ( -3.491481338843133355E-15, 1.224646799147353207E-16, -1.000000000000000000 ) ) ;
#72 = FACE_OUTER_BOUND ( 'NONE', #231, .T. ) ;
#73 = CARTESIAN_POINT ( 'NONE',  ( -8.114030392296918149E-32, 2.846018747848506920E-33, -2.323950668739767455E-17 ) ) ;
#74 = ADVANCED_FACE ( 'NONE', ( #100, #122 ), #167, .T. ) ;
#75 = FACE_OUTER_BOUND ( 'NONE', #209, .T. ) ;
#76 = VERTEX_POINT ( 'NONE', #239 ) ;
#77 = DIRECTION ( 'NONE',  ( 3.491481338843133355E-15, -1.224646799147353207E-16, 1.000000000000000000 ) ) ;
#78 = DIRECTION ( 'NONE',  ( -3.491481338843133355E-15, 1.224646799147353207E-16, -1.000000000000000000 ) ) ;
#79 = CONICAL_SURFACE ( 'NONE', #42, 0.4949999999999993294, 0.5235987755982925984 ) ;
#80 = DIRECTION ( 'NONE',  ( 0.0000000000000000000, -1.000000000000000000, 0.0000000000000000000 ) ) ;
#81 = ADVANCED_FACE ( 'NONE', ( #146 ), #163, .F. ) ;
#82 = PERSON_AND_ORGANIZATION ( #154, #176 ) ;
#83 = APPROVAL_PERSON_ORGANIZATION ( #18, #282, #255 ) ;
#84 = ORIENTED_EDGE ( 'NONE', *, *, #295, .F. ) ;
#85 = ADVANCED_FACE ( 'NONE', ( #6, #53 ), #144, .T. ) ;
#86 = EDGE_LOOP ( 'NONE', ( #247 ) ) ;
#87 = PRODUCT_DEFINITION_SHAPE ( 'NONE', 'NONE',  #161 ) ;
#88 = COORDINATED_UNIVERSAL_TIME_OFFSET ( 1, 0, .AHEAD. ) ;
#89 = EDGE_LOOP ( 'NONE', ( #302 ) ) ;
#90 = PERSON_AND_ORGANIZATION_ROLE ( 'design_supplier' ) ;
#91 = ORIENTED_EDGE ( 'NONE', *, *, #222, .T. ) ;
#92 = APPROVAL ( #184, 'UNSPECIFIED' ) ;
#93 = CARTESIAN_POINT ( 'NONE',  ( 3.491481338843133355E-14, -1.301042606982605321E-15, 10.00000000000000000 ) ) ;
#94 = CLOSED_SHELL ( 'NONE', ( #81, #101, #8, #238 ) ) ;
#95 = FACE_BOUND ( 'NONE', #229, .T. ) ;
#96 = CC_DESIGN_PERSON_AND_ORGANIZATION_ASSIGNMENT ( #39, #90, ( #16 ) ) ;
#97 = CARTESIAN_POINT ( 'NONE',  ( 1.326762908760390423E-13, -4.653657836759941941E-15, 38.00000000000000000 ) ) ;
#98 = CARTESIAN_POINT ( 'NONE',  ( 1.326762908760390423E-13, -4.653657836759941941E-15, 38.00000000000000000 ) ) ;
#99 =( GEOMETRIC_REPRESENTATION_CONTEXT ( 3 ) GLOBAL_UNCERTAINTY_ASSIGNED_CONTEXT ( ( #148 ) ) GLOBAL_UNIT_ASSIGNED_CONTEXT ( ( #105, #33, #220 ) ) REPRESENTATION_CONTEXT ( 'NONE', 'WORKASPACE' ) );
#100 = FACE_OUTER_BOUND ( 'NONE', #137, .T. ) ;
#101 = ADVANCED_FACE ( 'NONE', ( #95, #48 ), #79, .T. ) ;
#102 = FACE_BOUND ( 'NONE', #86, .T. ) ;
#103 = CARTESIAN_POINT ( 'NONE',  ( 1.326762908760390423E-13, 1.199999999999998845, 38.00000000000000000 ) ) ;
#104 = CIRCLE ( 'NONE', #14, 0.4449999999999993960 ) ;
#105 =( LENGTH_UNIT ( ) NAMED_UNIT ( * ) SI_UNIT ( .MILLI., .METRE. ) );
#106 = CC_DESIGN_PERSON_AND_ORGANIZATION_ASSIGNMENT ( #82, #230, ( #297 ) ) ;
#107 = CARTESIAN_POINT ( 'NONE',  ( 1.316288464743861212E-13, -4.616918432785521081E-15, 37.69999999999999574 ) ) ;
#108 = CC_DESIGN_APPROVAL ( #282, ( #161 ) ) ;
#109 = CARTESIAN_POINT ( 'NONE',  ( 0.0000000000000000000, 0.0000000000000000000, 0.0000000000000000000 ) ) ;
#110 = COORDINATED_UNIVERSAL_TIME_OFFSET ( 1, 0, .AHEAD. ) ;
#111 = ORIENTED_EDGE ( 'NONE', *, *, #222, .F. ) ;
#112 = DATE_AND_TIME ( #294, #258 ) ;
#113 = ORIENTED_EDGE ( 'NONE', *, *, #207, .F. ) ;
#114 = AXIS2_PLACEMENT_3D ( 'NONE', #281, #214, #165 ) ;
#115 = CALENDAR_DATE ( 2021, 1, 12 ) ;
#116 = ORIENTED_EDGE ( 'NONE', *, *, #12, .T. ) ;
#117 = FACE_OUTER_BOUND ( 'NONE', #65, .T. ) ;
#118 = FACE_BOUND ( 'NONE', #41, .T. ) ;
#119 = CLOSED_SHELL ( 'NONE', ( #38, #85, #74, #142, #244, #62, #60, #129 ) ) ;
#120 = DIRECTION ( 'NONE',  ( -3.491481338843133355E-15, 1.224646799147353207E-16, -1.000000000000000000 ) ) ;
#121 = DIRECTION ( 'NONE',  ( 4.275831445896958607E-31, 1.000000000000000000, 1.224646799147353207E-16 ) ) ;
#122 = FACE_OUTER_BOUND ( 'NONE', #256, .T. ) ;
#123 = AXIS2_PLACEMENT_3D ( 'NONE', #145, #71, #216 ) ;
#124 = CC_DESIGN_SECURITY_CLASSIFICATION ( #297, ( #16 ) ) ;
#125 = CARTESIAN_POINT ( 'NONE',  ( 1.316288464743861212E-13, 1.499999999999998668, 37.69999999999999574 ) ) ;
#126 = DIRECTION ( 'NONE',  ( 3.491481338843133355E-15, -1.224646799147353207E-16, 1.000000000000000000 ) ) ;
#127 = TOROIDAL_SURFACE ( 'NONE', #47, 2.445000000000000284, 2.000000000000000888 ) ;
#128 = SHAPE_DEFINITION_REPRESENTATION ( #87, #221 ) ;
#129 = ADVANCED_FACE ( 'NONE', ( #72 ), #236, .F. ) ;
#130 = EDGE_LOOP ( 'NONE', ( #273 ) ) ;
#131 = APPROVAL_DATE_TIME ( #271, #173 ) ;
#132 = FACE_OUTER_BOUND ( 'NONE', #21, .T. ) ;
#133 = EDGE_LOOP ( 'NONE', ( #23 ) ) ;
#134 = ORIENTED_EDGE ( 'NONE', *, *, #187, .T. ) ;
#135 = CC_DESIGN_DATE_AND_TIME_ASSIGNMENT ( #22, #270, ( #297 ) ) ;
#136 = PERSON_AND_ORGANIZATION ( #154, #176 ) ;
#137 = EDGE_LOOP ( 'NONE', ( #111 ) ) ;
#138 = AXIS2_PLACEMENT_3D ( 'NONE', #107, #293, #175 ) ;
#139 = APPROVAL_PERSON_ORGANIZATION ( #61, #173, #45 ) ;
#140 = DIRECTION ( 'NONE',  ( -3.890767564418663774E-31, -1.000000000000000000, -1.095153709581319154E-16 ) ) ;
#141 = DIRECTION ( 'NONE',  ( -3.491481338843133355E-15, 1.224646799147353207E-16, -1.000000000000000000 ) ) ;
#142 = ADVANCED_FACE ( 'NONE', ( #117, #212 ), #127, .F. ) ;
#143 = CARTESIAN_POINT ( 'NONE',  ( -1.622806078459383630E-31, 5.692037495697013839E-33, -4.647901337479534910E-17 ) ) ;
#144 = CONICAL_SURFACE ( 'NONE', #123, 0.4449999999999993960, 0.5235987755982943748 ) ;
#145 = CARTESIAN_POINT ( 'NONE',  ( 1.775977784784342036E-14, -6.229291519609259858E-16, 5.086602540378446058 ) ) ;
#146 = FACE_OUTER_BOUND ( 'NONE', #183, .T. ) ;
#147 = FACE_OUTER_BOUND ( 'NONE', #228, .T. ) ;
#148 = UNCERTAINTY_MEASURE_WITH_UNIT (LENGTH_MEASURE( 1.000000000000000082E-05 ), #105, 'distance_accuracy_value', 'NONE');
#149 = LOCAL_TIME ( 11, 39, 48.00000000000000000, #88 ) ;
#150 = CARTESIAN_POINT ( 'NONE',  ( 1.745740669421566678E-14, 0.4949999999999993294, 5.000000000000000000 ) ) ;
#151 = CC_DESIGN_PERSON_AND_ORGANIZATION_ASSIGNMENT ( #136, #298, ( #16 ) ) ;
#152 = CARTESIAN_POINT ( 'NONE',  ( 1.745740669421566678E-14, 0.4949999999999993294, 5.000000000000000000 ) ) ;
#153 = AXIS2_PLACEMENT_3D ( 'NONE', #232, #283, #5 ) ;
#154 = PERSON ( 'UNSPECIFIED', 'UNSPECIFIED', 'UNSPECIFIED', ('UNSPECIFIED'), ('UNSPECIFIED'), ('UNSPECIFIED') ) ;
#155 = DATE_TIME_ROLE ( 'creation_date' ) ;
#156 = DIRECTION ( 'NONE',  ( 0.0000000000000000000, 1.000000000000000000, 0.0000000000000000000 ) ) ;
#157 = PERSON_AND_ORGANIZATION_ROLE ( 'creator' ) ;
#158 = CONICAL_SURFACE ( 'NONE', #266, 1.200000000000003286, 0.7853981633974453924 ) ;
#159 = PRODUCT ( '200727', '200727', '', ( #218 ) ) ;
#160 = SECURITY_CLASSIFICATION_LEVEL ( 'unclassified' ) ;
#161 = PRODUCT_DEFINITION ( 'UNKNOWN', '', #16, #69 ) ;
#162 = DIRECTION ( 'NONE',  ( -3.491481338843133355E-15, 1.224646799147353207E-16, -1.000000000000000000 ) ) ;
#163 = PLANE ( 'NONE',  #290 ) ;
#164 = AXIS2_PLACEMENT_3D ( 'NONE', #299, #180, #63 ) ;
#165 = DIRECTION ( 'NONE',  ( 0.0000000000000000000, 1.000000000000000000, 0.0000000000000000000 ) ) ;
#166 = DIRECTION ( 'NONE',  ( 4.275831445896957731E-31, 1.000000000000000000, 1.224646799147353207E-16 ) ) ;
#167 = CYLINDRICAL_SURFACE ( 'NONE', #26, 0.4449999999999997291 ) ;
#168 = CIRCLE ( 'NONE', #217, 0.4949999999999999956 ) ;
#169 = DIRECTION ( 'NONE',  ( -4.275831445896958607E-31, -1.000000000000000000, -1.224646799147353207E-16 ) ) ;
#170 = VERTEX_POINT ( 'NONE', #243 ) ;
#171 = CARTESIAN_POINT ( 'NONE',  ( 1.745740669421566678E-14, 3.711905462088088411E-33, 5.000000000000000000 ) ) ;
#172 = CONICAL_SURFACE ( 'NONE', #286, 1.499999999999997335, 0.1745329251994262865 ) ;
#173 = APPROVAL ( #252, 'UNSPECIFIED' ) ;
#174 = CARTESIAN_POINT ( 'NONE',  ( 5.641598270629820396E-14, 1.499999999999995559, 16.15817964674875284 ) ) ;
#175 = DIRECTION ( 'NONE',  ( 0.0000000000000000000, 1.000000000000000000, 0.0000000000000000000 ) ) ;
#176 = ORGANIZATION ( 'UNSPECIFIED', 'UNSPECIFIED', '' ) ;
#177 = CALENDAR_DATE ( 2021, 1, 12 ) ;
#178 = COORDINATED_UNIVERSAL_TIME_OFFSET ( 1, 0, .AHEAD. ) ;
#179 = FACE_OUTER_BOUND ( 'NONE', #89, .T. ) ;
#180 = DIRECTION ( 'NONE',  ( -3.491481338843133355E-15, 1.224646799147353207E-16, -1.000000000000000000 ) ) ;
#181 = COORDINATED_UNIVERSAL_TIME_OFFSET ( 1, 0, .AHEAD. ) ;
#182 = AXIS2_PLACEMENT_3D ( 'NONE', #264, #268, #55 ) ;
#183 = EDGE_LOOP ( 'NONE', ( #253 ) ) ;
#184 = APPROVAL_STATUS ( 'not_yet_approved' ) ;
#185 = ORIENTED_EDGE ( 'NONE', *, *, #193, .T. ) ;
#186 = ORIENTED_EDGE ( 'NONE', *, *, #12, .F. ) ;
#187 = EDGE_CURVE ( 'NONE', #76, #76, #245, .T. ) ;
#188 = DIRECTION ( 'NONE',  ( 3.491481338843133355E-15, -1.224646799147353207E-16, 1.000000000000000000 ) ) ;
#189 = AXIS2_PLACEMENT_3D ( 'NONE', #109, #251, #206 ) ;
#190 = CARTESIAN_POINT ( 'NONE',  ( 0.0000000000000000000, 0.0000000000000000000, 0.0000000000000000000 ) ) ;
#191 = CYLINDRICAL_SURFACE ( 'NONE', #274, 1.500000000000000444 ) ;
#192 = CARTESIAN_POINT ( 'NONE',  ( 1.775977784784342036E-14, -6.229291519609259858E-16, 5.086602540378446058 ) ) ;
#193 = EDGE_CURVE ( 'NONE', #267, #267, #200, .T. ) ;
#194 = CIRCLE ( 'NONE', #182, 0.4753844939755799137 ) ;
#195 = CC_DESIGN_APPROVAL ( #92, ( #297 ) ) ;
#196 = CARTESIAN_POINT ( 'NONE',  ( 1.745740669421566678E-14, 3.711905462088088411E-33, 5.000000000000000000 ) ) ;
#197 = VERTEX_POINT ( 'NONE', #219 ) ;
#198 = EDGE_CURVE ( 'NONE', #56, #56, #296, .T. ) ;
#199 = APPLICATION_PROTOCOL_DEFINITION ( 'international standard', 'config_control_design', 1994, #254 ) ;
#200 = CIRCLE ( 'NONE', #64, 0.4949999999999999956 ) ;
#201 = DIRECTION ( 'NONE',  ( -4.275831445896958607E-31, -1.000000000000000000, -1.224646799147353207E-16 ) ) ;
#202 = VERTEX_POINT ( 'NONE', #103 ) ;
#203 = APPLICATION_PROTOCOL_DEFINITION ( 'international standard', 'config_control_design', 1994, #51 ) ;
#204 = EDGE_LOOP ( 'NONE', ( #91 ) ) ;
#205 = COORDINATED_UNIVERSAL_TIME_OFFSET ( 1, 0, .AHEAD. ) ;
#206 = DIRECTION ( 'NONE',  ( 4.275831445896957731E-31, 1.000000000000000000, 1.224646799147353207E-16 ) ) ;
#207 = EDGE_CURVE ( 'NONE', #202, #202, #32, .T. ) ;
#208 = CALENDAR_DATE ( 2021, 1, 12 ) ;
#209 = EDGE_LOOP ( 'NONE', ( #84 ) ) ;
#210 = PERSON_AND_ORGANIZATION ( #154, #176 ) ;
#211 = LOCAL_TIME ( 11, 39, 48.00000000000000000, #181 ) ;
#212 = FACE_OUTER_BOUND ( 'NONE', #46, .T. ) ;
#213 = FACE_OUTER_BOUND ( 'NONE', #300, .T. ) ;
#214 = DIRECTION ( 'NONE',  ( -3.491481338843133355E-15, 1.224646799147353207E-16, -1.000000000000000000 ) ) ;
#215 = DIRECTION ( 'NONE',  ( 0.0000000000000000000, 1.000000000000000000, 0.0000000000000000000 ) ) ;
#216 = DIRECTION ( 'NONE',  ( 0.0000000000000000000, 1.000000000000000000, 0.0000000000000000000 ) ) ;
#217 = AXIS2_PLACEMENT_3D ( 'NONE', #67, #162, #156 ) ;
#218 = MECHANICAL_CONTEXT ( 'NONE', #254, 'mechanical' ) ;
#219 = CARTESIAN_POINT ( 'NONE',  ( 1.775977784784342036E-14, 0.4449999999999987854, 5.086602540378446058 ) ) ;
#220 =( NAMED_UNIT ( * ) SI_UNIT ( $, .STERADIAN. ) SOLID_ANGLE_UNIT ( ) );
#221 = ADVANCED_BREP_SHAPE_REPRESENTATION ( '200727', ( #280, #277, #9 ), #99 ) ;
#222 = EDGE_CURVE ( 'NONE', #197, #197, #104, .T. ) ;
#223 = CALENDAR_DATE ( 2021, 1, 12 ) ;
#224 = ORIENTED_EDGE ( 'NONE', *, *, #198, .F. ) ;
#225 = CIRCLE ( 'NONE', #289, 0.4949999999999993294 ) ;
#226 = CYLINDRICAL_SURFACE ( 'NONE', #189, 0.4949999999999996625 ) ;
#227 = APPROVAL_DATE_TIME ( #112, #282 ) ;
#228 = EDGE_LOOP ( 'NONE', ( #116 ) ) ;
#229 = EDGE_LOOP ( 'NONE', ( #224 ) ) ;
#230 = PERSON_AND_ORGANIZATION_ROLE ( 'classification_officer' ) ;
#231 = EDGE_LOOP ( 'NONE', ( #113 ) ) ;
#232 = CARTESIAN_POINT ( 'NONE',  ( 1.326762908760390423E-13, 8.998558695971103225E-33, 38.00000000000000000 ) ) ;
#233 = DIRECTION ( 'NONE',  ( -3.491481338843133355E-15, 1.224646799147353207E-16, -1.000000000000000000 ) ) ;
#234 = PLANE ( 'NONE',  #301 ) ;
#235 = AXIS2_PLACEMENT_3D ( 'NONE', #143, #28, #121 ) ;
#236 = PLANE ( 'NONE',  #153 ) ;
#237 = DIRECTION ( 'NONE',  ( -3.491481338843133355E-15, 1.224646799147353207E-16, -1.000000000000000000 ) ) ;
#238 = ADVANCED_FACE ( 'NONE', ( #35 ), #10, .T. ) ;
#239 = CARTESIAN_POINT ( 'NONE',  ( 3.491481338843133355E-14, 0.4449999999999987854, 10.00000000000000000 ) ) ;
#240 = CIRCLE ( 'NONE', #164, 1.499999999999997335 ) ;
#241 = VERTEX_POINT ( 'NONE', #125 ) ;
#242 = PERSON_AND_ORGANIZATION_ROLE ( 'design_owner' ) ;
#243 = CARTESIAN_POINT ( 'NONE',  ( 6.982962677686267697E-16, 0.4949999999999993294, 0.2000000000000000111 ) ) ;
#244 = ADVANCED_FACE ( 'NONE', ( #102, #147 ), #172, .T. ) ;
#245 = CIRCLE ( 'NONE', #114, 0.4450000000000000067 ) ;
#246 = APPROVAL_DATE_TIME ( #279, #92 ) ;
#247 = ORIENTED_EDGE ( 'NONE', *, *, #249, .F. ) ;
#248 = PERSON_AND_ORGANIZATION ( #154, #176 ) ;
#249 = EDGE_CURVE ( 'NONE', #36, #36, #194, .T. ) ;
#250 = EDGE_LOOP ( 'NONE', ( #186 ) ) ;
#251 = DIRECTION ( 'NONE',  ( -3.491481338843133355E-15, 1.224646799147353207E-16, -1.000000000000000000 ) ) ;
#252 = APPROVAL_STATUS ( 'not_yet_approved' ) ;
#253 = ORIENTED_EDGE ( 'NONE', *, *, #198, .T. ) ;
#254 = APPLICATION_CONTEXT ( 'configuration controlled 3d designs of mechanical parts and assemblies' ) ;
#255 = APPROVAL_ROLE ( '' ) ;
#256 = EDGE_LOOP ( 'NONE', ( #134 ) ) ;
#257 = CC_DESIGN_DATE_AND_TIME_ASSIGNMENT ( #44, #155, ( #161 ) ) ;
#258 = LOCAL_TIME ( 11, 39, 48.00000000000000000, #178 ) ;
#259 = DIRECTION ( 'NONE',  ( 4.275831445896958607E-31, 1.000000000000000000, 1.224646799147353207E-16 ) ) ;
#260 = CARTESIAN_POINT ( 'NONE',  ( 1.745740669421566678E-14, -6.123233995736766282E-16, 5.000000000000000000 ) ) ;
#261 = DIRECTION ( 'NONE',  ( 3.491481338843133355E-15, -1.224646799147353207E-16, 1.000000000000000000 ) ) ;
#262 = DIRECTION ( 'NONE',  ( -4.275831445896958607E-31, -1.000000000000000000, -1.224646799147353207E-16 ) ) ;
#263 = DIRECTION ( 'NONE',  ( 0.0000000000000000000, 1.000000000000000000, 0.0000000000000000000 ) ) ;
#264 = CARTESIAN_POINT ( 'NONE',  ( 3.612739213212769742E-14, -1.267178336138866969E-15, 10.34729635533384773 ) ) ;
#265 = VERTEX_POINT ( 'NONE', #174 ) ;
#266 = AXIS2_PLACEMENT_3D ( 'NONE', #97, #3, #263 ) ;
#267 = VERTEX_POINT ( 'NONE', #152 ) ;
#268 = DIRECTION ( 'NONE',  ( -3.491481338843133355E-15, 1.224646799147353207E-16, -1.000000000000000000 ) ) ;
#269 = CARTESIAN_POINT ( 'NONE',  ( 5.641598270629820396E-14, -1.978806298443876982E-15, 16.15817964674875284 ) ) ;
#270 = DATE_TIME_ROLE ( 'classification_date' ) ;
#271 = DATE_AND_TIME ( #223, #211 ) ;
#272 = ORIENTED_EDGE ( 'NONE', *, *, #20, .T. ) ;
#273 = ORIENTED_EDGE ( 'NONE', *, *, #193, .F. ) ;
#274 = AXIS2_PLACEMENT_3D ( 'NONE', #54, #141, #259 ) ;
#275 = LOCAL_TIME ( 11, 39, 48.00000000000000000, #205 ) ;
#276 = APPROVAL_ROLE ( '' ) ;
#277 = MANIFOLD_SOLID_BREP ( 'Corps-Déplacer/Copier1[2]', #94 ) ;
#278 = ORIENTED_EDGE ( 'NONE', *, *, #1, .T. ) ;
#279 = DATE_AND_TIME ( #208, #275 ) ;
#280 = MANIFOLD_SOLID_BREP ( 'Corps-Déplacer/Copier1[1]', #119 ) ;
#281 = CARTESIAN_POINT ( 'NONE',  ( 3.491481338843133355E-14, -1.224646799147353256E-15, 10.00000000000000000 ) ) ;
#282 = APPROVAL ( #66, 'UNSPECIFIED' ) ;
#283 = DIRECTION ( 'NONE',  ( -3.491481338843133355E-15, 1.224646799147353207E-16, -1.000000000000000000 ) ) ;
#284 = DIRECTION ( 'NONE',  ( 4.275831445896958607E-31, 1.000000000000000000, 1.224646799147352961E-16 ) ) ;
#285 = CARTESIAN_POINT ( 'NONE',  ( 6.982962677686265724E-16, -2.449293598294705921E-17, 0.1999999999999999556 ) ) ;
#286 = AXIS2_PLACEMENT_3D ( 'NONE', #269, #126, #80 ) ;
#287 = DIRECTION ( 'NONE',  ( -3.491481338843133355E-15, 1.224646799147353207E-16, -1.000000000000000000 ) ) ;
#288 = CC_DESIGN_PERSON_AND_ORGANIZATION_ASSIGNMENT ( #210, #157, ( #161 ) ) ;
#289 = AXIS2_PLACEMENT_3D ( 'NONE', #285, #287, #49 ) ;
#290 = AXIS2_PLACEMENT_3D ( 'NONE', #73, #25, #262 ) ;
#291 = APPROVAL_PERSON_ORGANIZATION ( #248, #92, #276 ) ;
#292 = DIRECTION ( 'NONE',  ( 0.0000000000000000000, 1.000000000000000000, 0.0000000000000000000 ) ) ;
#293 = DIRECTION ( 'NONE',  ( -3.491481338843133355E-15, 1.224646799147353207E-16, -1.000000000000000000 ) ) ;
#294 = CALENDAR_DATE ( 2021, 1, 12 ) ;
#295 = EDGE_CURVE ( 'NONE', #241, #241, #52, .T. ) ;
#296 = CIRCLE ( 'NONE', #235, 0.3795299461620758597 ) ;
#297 = SECURITY_CLASSIFICATION ( '', '', #160 ) ;
#298 = PERSON_AND_ORGANIZATION_ROLE ( 'creator' ) ;
#299 = CARTESIAN_POINT ( 'NONE',  ( 5.641598270629820396E-14, -1.978806298443876982E-15, 16.15817964674875284 ) ) ;
#300 = EDGE_LOOP ( 'NONE', ( #278 ) ) ;
#301 = AXIS2_PLACEMENT_3D ( 'NONE', #196, #188, #169 ) ;
#302 = ORIENTED_EDGE ( 'NONE', *, *, #20, .F. ) ;
#303 = ORIENTED_EDGE ( 'NONE', *, *, #1, .F. ) ;
ENDSEC;
END-ISO-10303-21;
