ISO-10303-21;
HEADER;
FILE_DESCRIPTION (( 'STEP AP203' ),
    '1' );
FILE_NAME ('200726.step',
    '2021-12-01T10:39:47',
    ( '' ),
    ( '' ),
    'SwSTEP 2.0',
    'SolidWorks 2019',
    '' );
FILE_SCHEMA (( 'CONFIG_CONTROL_DESIGN' ));
ENDSEC;

DATA;
#1 = ORIENTED_EDGE ( 'NONE', *, *, #281, .F. ) ;
#2 = ADVANCED_FACE ( 'NONE', ( #280 ), #147, .F. ) ;
#3 = UNCERTAINTY_MEASURE_WITH_UNIT (LENGTH_MEASURE( 1.000000000000000082E-05 ), #277, 'distance_accuracy_value', 'NONE');
#4 = AXIS2_PLACEMENT_3D ( 'NONE', #10, #107, #200 ) ;
#5 = EDGE_LOOP ( 'NONE', ( #288 ) ) ;
#6 = ORIENTED_EDGE ( 'NONE', *, *, #248, .F. ) ;
#7 = PERSON_AND_ORGANIZATION_ROLE ( 'creator' ) ;
#8 = AXIS2_PLACEMENT_3D ( 'NONE', #271, #246, #130 ) ;
#9 = CC_DESIGN_PERSON_AND_ORGANIZATION_ASSIGNMENT ( #73, #7, ( #270 ) ) ;
#10 = CARTESIAN_POINT ( 'NONE',  ( 5.651498857950078829E-14, -1.982278957007605771E-15, 16.18653605584684385 ) ) ;
#11 = DIRECTION ( 'NONE',  ( -3.491481338843133355E-15, 1.224646799147353207E-16, -1.000000000000000000 ) ) ;
#12 = DIRECTION ( 'NONE',  ( -3.491481338843133355E-15, 1.224646799147353207E-16, -1.000000000000000000 ) ) ;
#13 = CC_DESIGN_PERSON_AND_ORGANIZATION_ASSIGNMENT ( #285, #53, ( #87 ) ) ;
#14 = FACE_OUTER_BOUND ( 'NONE', #219, .T. ) ;
#15 = DIRECTION ( 'NONE',  ( 0.0000000000000000000, 1.000000000000000000, 0.0000000000000000000 ) ) ;
#16 = DIRECTION ( 'NONE',  ( -4.275831445896958607E-31, -1.000000000000000000, -1.224646799147353207E-16 ) ) ;
#17 = AXIS2_PLACEMENT_3D ( 'NONE', #113, #11, #15 ) ;
#18 = DIRECTION ( 'NONE',  ( 0.0000000000000000000, 0.0000000000000000000, 1.000000000000000000 ) ) ;
#19 = CARTESIAN_POINT ( 'NONE',  ( 1.745740669421566678E-14, 3.674411467521541697E-33, 5.000000000000000000 ) ) ;
#20 = EDGE_CURVE ( 'NONE', #95, #95, #265, .T. ) ;
#21 = CARTESIAN_POINT ( 'NONE',  ( 1.326762908760390423E-13, -4.653657836759941941E-15, 38.00000000000000000 ) ) ;
#22 = CIRCLE ( 'NONE', #115, 0.4399999999999997802 ) ;
#23 = SECURITY_CLASSIFICATION ( '', '', #282 ) ;
#24 = CALENDAR_DATE ( 2021, 1, 12 ) ;
#25 = TOROIDAL_SURFACE ( 'NONE', #302, 2.439999999999999947, 2.000000000000000000 ) ;
#26 = COORDINATED_UNIVERSAL_TIME_OFFSET ( 1, 0, .AHEAD. ) ;
#27 = ORIENTED_EDGE ( 'NONE', *, *, #112, .F. ) ;
#28 = APPROVAL_STATUS ( 'not_yet_approved' ) ;
#29 = ORIENTED_EDGE ( 'NONE', *, *, #161, .T. ) ;
#30 = APPROVAL_DATE_TIME ( #238, #289 ) ;
#31 = PERSON ( 'UNSPECIFIED', 'UNSPECIFIED', 'UNSPECIFIED', ('UNSPECIFIED'), ('UNSPECIFIED'), ('UNSPECIFIED') ) ;
#32 = EDGE_LOOP ( 'NONE', ( #122 ) ) ;
#33 = CARTESIAN_POINT ( 'NONE',  ( -2.547794834421479703E-31, 8.936461306971370074E-33, -7.297174428735929086E-17 ) ) ;
#34 = EDGE_CURVE ( 'NONE', #230, #230, #284, .T. ) ;
#35 = DIRECTION ( 'NONE',  ( 0.0000000000000000000, 1.000000000000000000, 0.0000000000000000000 ) ) ;
#36 = DIRECTION ( 'NONE',  ( -3.491481338843133355E-15, 1.224646799147353207E-16, -1.000000000000000000 ) ) ;
#37 = CONICAL_SURFACE ( 'NONE', #205, 0.4899999999999993250, 0.5235987755982925984 ) ;
#38 = CARTESIAN_POINT ( 'NONE',  ( 5.651498857950078829E-14, -1.982278957007605771E-15, 16.18653605584684385 ) ) ;
#39 = DIRECTION ( 'NONE',  ( -3.491481338843133355E-15, 1.224646799147353207E-16, -1.000000000000000000 ) ) ;
#40 = CC_DESIGN_DATE_AND_TIME_ASSIGNMENT ( #126, #146, ( #23 ) ) ;
#41 = CARTESIAN_POINT ( 'NONE',  ( 1.745740669421566678E-14, 0.4899999999999993250, 5.000000000000000000 ) ) ;
#42 =( NAMED_UNIT ( * ) SI_UNIT ( $, .STERADIAN. ) SOLID_ANGLE_UNIT ( ) );
#43 = CLOSED_SHELL ( 'NONE', ( #174, #239, #141, #297 ) ) ;
#44 = DIRECTION ( 'NONE',  ( -4.275831445896958607E-31, -1.000000000000000000, -1.224646799147353207E-16 ) ) ;
#45 =( NAMED_UNIT ( * ) PLANE_ANGLE_UNIT ( ) SI_UNIT ( $, .RADIAN. ) );
#46 = CARTESIAN_POINT ( 'NONE',  ( 1.745740669421566678E-14, -6.123233995736766282E-16, 5.000000000000000000 ) ) ;
#47 = PERSON_AND_ORGANIZATION ( #31, #286 ) ;
#48 = EDGE_LOOP ( 'NONE', ( #6 ) ) ;
#49 = COORDINATED_UNIVERSAL_TIME_OFFSET ( 1, 0, .AHEAD. ) ;
#50 = ORIENTED_EDGE ( 'NONE', *, *, #20, .T. ) ;
#51 = AXIS2_PLACEMENT_3D ( 'NONE', #38, #227, #272 ) ;
#52 = APPROVAL_PERSON_ORGANIZATION ( #164, #90, #260 ) ;
#53 = PERSON_AND_ORGANIZATION_ROLE ( 'creator' ) ;
#54 = EDGE_LOOP ( 'NONE', ( #283 ) ) ;
#55 = PERSON_AND_ORGANIZATION_ROLE ( 'classification_officer' ) ;
#56 = EDGE_LOOP ( 'NONE', ( #210 ) ) ;
#57 = EDGE_LOOP ( 'NONE', ( #148 ) ) ;
#58 = CARTESIAN_POINT ( 'NONE',  ( 0.0000000000000000000, 0.0000000000000000000, 0.0000000000000000000 ) ) ;
#59 = FACE_BOUND ( 'NONE', #194, .T. ) ;
#60 = FACE_OUTER_BOUND ( 'NONE', #166, .T. ) ;
#61 = FACE_BOUND ( 'NONE', #259, .T. ) ;
#62 = LOCAL_TIME ( 11, 39, 47.00000000000000000, #303 ) ;
#63 = APPROVAL ( #28, 'UNSPECIFIED' ) ;
#64 = FACE_OUTER_BOUND ( 'NONE', #103, .T. ) ;
#65 = CARTESIAN_POINT ( 'NONE',  ( -9.463679131915808972E-32, 0.3745299461620758552, -2.710505431213761701E-17 ) ) ;
#66 = CC_DESIGN_PERSON_AND_ORGANIZATION_ASSIGNMENT ( #186, #279, ( #258 ) ) ;
#67 = DIRECTION ( 'NONE',  ( 0.0000000000000000000, 1.000000000000000000, 0.0000000000000000000 ) ) ;
#68 = VERTEX_POINT ( 'NONE', #117 ) ;
#69 = DIRECTION ( 'NONE',  ( -3.491481338843133355E-15, 1.224646799147353207E-16, -1.000000000000000000 ) ) ;
#70 = ADVANCED_FACE ( 'NONE', ( #221, #294 ), #156, .T. ) ;
#71 = CIRCLE ( 'NONE', #173, 1.500000000000003331 ) ;
#72 = APPROVAL_PERSON_ORGANIZATION ( #261, #63, #216 ) ;
#73 = PERSON_AND_ORGANIZATION ( #31, #286 ) ;
#74 = DATE_AND_TIME ( #237, #62 ) ;
#75 = ORIENTED_EDGE ( 'NONE', *, *, #190, .T. ) ;
#76 = EDGE_CURVE ( 'NONE', #118, #118, #71, .T. ) ;
#77 = ORIENTED_EDGE ( 'NONE', *, *, #76, .F. ) ;
#78 = AXIS2_PLACEMENT_3D ( 'NONE', #215, #128, #217 ) ;
#79 = MANIFOLD_SOLID_BREP ( 'Corps-Déplacer/Copier1[1]', #298 ) ;
#80 = COORDINATED_UNIVERSAL_TIME_OFFSET ( 1, 0, .AHEAD. ) ;
#81 = ORIENTED_EDGE ( 'NONE', *, *, #161, .F. ) ;
#82 = DIRECTION ( 'NONE',  ( -3.491481338843133355E-15, 1.224646799147353207E-16, -1.000000000000000000 ) ) ;
#83 = AXIS2_PLACEMENT_3D ( 'NONE', #33, #264, #172 ) ;
#84 = APPROVAL_PERSON_ORGANIZATION ( #47, #289, #214 ) ;
#85 = DIRECTION ( 'NONE',  ( -3.491481338843133355E-15, 1.224646799147353207E-16, -1.000000000000000000 ) ) ;
#86 = DIRECTION ( 'NONE',  ( -3.491481338843133355E-15, 1.224646799147353207E-16, -1.000000000000000000 ) ) ;
#87 = PRODUCT_DEFINITION ( 'UNKNOWN', '', #270, #195 ) ;
#88 = CARTESIAN_POINT ( 'NONE',  ( 0.0000000000000000000, 0.0000000000000000000, 0.0000000000000000000 ) ) ;
#89 = DIRECTION ( 'NONE',  ( -3.930469274259670342E-31, -1.000000000000000000, -1.106328747434189700E-16 ) ) ;
#90 = APPROVAL ( #102, 'UNSPECIFIED' ) ;
#91 = FACE_OUTER_BOUND ( 'NONE', #48, .T. ) ;
#92 = CARTESIAN_POINT ( 'NONE',  ( 1.745740669421566678E-14, 0.4899999999999993250, 5.000000000000000000 ) ) ;
#93 = AXIS2_PLACEMENT_3D ( 'NONE', #58, #86, #222 ) ;
#94 =( GEOMETRIC_REPRESENTATION_CONTEXT ( 3 ) GLOBAL_UNCERTAINTY_ASSIGNED_CONTEXT ( ( #3 ) ) GLOBAL_UNIT_ASSIGNED_CONTEXT ( ( #277, #45, #42 ) ) REPRESENTATION_CONTEXT ( 'NONE', 'WORKASPACE' ) );
#95 = VERTEX_POINT ( 'NONE', #136 ) ;
#96 = FACE_BOUND ( 'NONE', #263, .T. ) ;
#97 = CC_DESIGN_DATE_AND_TIME_ASSIGNMENT ( #169, #120, ( #87 ) ) ;
#98 = SHAPE_DEFINITION_REPRESENTATION ( #213, #218 ) ;
#99 = CALENDAR_DATE ( 2021, 1, 12 ) ;
#100 = PRODUCT_RELATED_PRODUCT_CATEGORY ( 'detail', '', ( #258 ) ) ;
#101 = MECHANICAL_CONTEXT ( 'NONE', #223, 'mechanical' ) ;
#102 = APPROVAL_STATUS ( 'not_yet_approved' ) ;
#103 = EDGE_LOOP ( 'NONE', ( #27 ) ) ;
#104 = AXIS2_PLACEMENT_3D ( 'NONE', #21, #252, #275 ) ;
#105 = APPLICATION_PROTOCOL_DEFINITION ( 'international standard', 'config_control_design', 1994, #236 ) ;
#106 = ADVANCED_FACE ( 'NONE', ( #14, #61 ), #255, .T. ) ;
#107 = DIRECTION ( 'NONE',  ( -3.491481338843133355E-15, 1.224646799147353207E-16, -1.000000000000000000 ) ) ;
#108 = DIRECTION ( 'NONE',  ( 0.0000000000000000000, 1.000000000000000000, 0.0000000000000000000 ) ) ;
#109 = DIRECTION ( 'NONE',  ( 3.491481338843133355E-15, -1.224646799147353207E-16, 1.000000000000000000 ) ) ;
#110 = AXIS2_PLACEMENT_3D ( 'NONE', #229, #18, #300 ) ;
#111 = CARTESIAN_POINT ( 'NONE',  ( -1.273897417210739852E-31, 4.468230653485685037E-33, -3.648587214367964543E-17 ) ) ;
#112 = EDGE_CURVE ( 'NONE', #68, #68, #124, .T. ) ;
#113 = CARTESIAN_POINT ( 'NONE',  ( 1.745740669421566678E-14, -6.123233995736766282E-16, 5.000000000000000000 ) ) ;
#114 = CARTESIAN_POINT ( 'NONE',  ( 0.0000000000000000000, 0.0000000000000000000, 0.0000000000000000000 ) ) ;
#115 = AXIS2_PLACEMENT_3D ( 'NONE', #242, #178, #108 ) ;
#116 = CARTESIAN_POINT ( 'NONE',  ( 1.326762908760390423E-13, 1.199999999999998845, 38.00000000000000000 ) ) ;
#117 = CARTESIAN_POINT ( 'NONE',  ( 1.775977784784342036E-14, 0.4399999999999986700, 5.086602540378446058 ) ) ;
#118 = VERTEX_POINT ( 'NONE', #249 ) ;
#119 = AXIS2_PLACEMENT_3D ( 'NONE', #46, #69, #67 ) ;
#120 = DATE_TIME_ROLE ( 'creation_date' ) ;
#121 = ORIENTED_EDGE ( 'NONE', *, *, #76, .T. ) ;
#122 = ORIENTED_EDGE ( 'NONE', *, *, #248, .T. ) ;
#123 = AXIS2_PLACEMENT_3D ( 'NONE', #295, #175, #133 ) ;
#124 = CIRCLE ( 'NONE', #154, 0.4399999999999992806 ) ;
#125 = LOCAL_TIME ( 11, 39, 47.00000000000000000, #140 ) ;
#126 = DATE_AND_TIME ( #24, #293 ) ;
#127 = EDGE_LOOP ( 'NONE', ( #121 ) ) ;
#128 = DIRECTION ( 'NONE',  ( 3.491481338843133355E-15, -1.224646799147353207E-16, 1.000000000000000000 ) ) ;
#129 = FACE_BOUND ( 'NONE', #212, .T. ) ;
#130 = DIRECTION ( 'NONE',  ( 0.0000000000000000000, 1.000000000000000000, 0.0000000000000000000 ) ) ;
#131 = DIRECTION ( 'NONE',  ( 4.275831445896959482E-31, 1.000000000000000000, 1.224646799147353207E-16 ) ) ;
#132 = CYLINDRICAL_SURFACE ( 'NONE', #93, 0.4899999999999996581 ) ;
#133 = DIRECTION ( 'NONE',  ( 3.930469274259670342E-31, 1.000000000000000000, 1.106328747434189700E-16 ) ) ;
#134 = EDGE_CURVE ( 'NONE', #208, #208, #22, .T. ) ;
#135 = CARTESIAN_POINT ( 'NONE',  ( 3.612739213212769111E-14, 0.4703844939755804089, 10.34729635533384595 ) ) ;
#136 = CARTESIAN_POINT ( 'NONE',  ( 5.651498857950078829E-14, 1.499999999999995559, 16.18653605584684385 ) ) ;
#137 = APPLICATION_PROTOCOL_DEFINITION ( 'international standard', 'config_control_design', 1994, #223 ) ;
#138 = EDGE_CURVE ( 'NONE', #247, #247, #149, .T. ) ;
#139 = VERTEX_POINT ( 'NONE', #116 ) ;
#140 = COORDINATED_UNIVERSAL_TIME_OFFSET ( 1, 0, .AHEAD. ) ;
#141 = ADVANCED_FACE ( 'NONE', ( #155, #196 ), #132, .T. ) ;
#142 = EDGE_LOOP ( 'NONE', ( #188 ) ) ;
#143 = CIRCLE ( 'NONE', #158, 0.4703844939755816301 ) ;
#144 = CALENDAR_DATE ( 2021, 1, 12 ) ;
#145 = EDGE_LOOP ( 'NONE', ( #50 ) ) ;
#146 = DATE_TIME_ROLE ( 'classification_date' ) ;
#147 = PLANE ( 'NONE',  #78 ) ;
#148 = ORIENTED_EDGE ( 'NONE', *, *, #20, .F. ) ;
#149 = CIRCLE ( 'NONE', #17, 0.4899999999999999911 ) ;
#150 = FACE_OUTER_BOUND ( 'NONE', #163, .T. ) ;
#151 = ADVANCED_FACE ( 'NONE', ( #290, #129 ), #291, .T. ) ;
#152 = CARTESIAN_POINT ( 'NONE',  ( 3.491481338843133355E-14, -1.301042606982605321E-15, 10.00000000000000000 ) ) ;
#153 = CARTESIAN_POINT ( 'NONE',  ( 1.316288464743861212E-13, -4.616918432785521081E-15, 37.69999999999999574 ) ) ;
#154 = AXIS2_PLACEMENT_3D ( 'NONE', #201, #85, #198 ) ;
#155 = FACE_OUTER_BOUND ( 'NONE', #56, .T. ) ;
#156 = CYLINDRICAL_SURFACE ( 'NONE', #211, 1.500000000000000444 ) ;
#157 = PLANE ( 'NONE',  #244 ) ;
#158 = AXIS2_PLACEMENT_3D ( 'NONE', #266, #296, #199 ) ;
#159 = DIRECTION ( 'NONE',  ( 4.275831445896958607E-31, 1.000000000000000000, 1.224646799147353207E-16 ) ) ;
#160 = VERTEX_POINT ( 'NONE', #135 ) ;
#161 = EDGE_CURVE ( 'NONE', #276, #276, #228, .T. ) ;
#162 = CARTESIAN_POINT ( 'NONE',  ( 6.982962677686267697E-16, 0.4899999999999993250, 0.2000000000000000111 ) ) ;
#163 = EDGE_LOOP ( 'NONE', ( #262 ) ) ;
#164 = PERSON_AND_ORGANIZATION ( #31, #286 ) ;
#165 = ORIENTED_EDGE ( 'NONE', *, *, #134, .F. ) ;
#166 = EDGE_LOOP ( 'NONE', ( #75 ) ) ;
#167 = CIRCLE ( 'NONE', #119, 0.4899999999999999911 ) ;
#168 = LOCAL_TIME ( 11, 39, 47.00000000000000000, #49 ) ;
#169 = DATE_AND_TIME ( #99, #202 ) ;
#170 = ORIENTED_EDGE ( 'NONE', *, *, #281, .T. ) ;
#171 = MANIFOLD_SOLID_BREP ( 'Corps-Déplacer/Copier1[2]', #43 ) ;
#172 = DIRECTION ( 'NONE',  ( 4.275831445896958607E-31, 1.000000000000000000, 1.224646799147353207E-16 ) ) ;
#173 = AXIS2_PLACEMENT_3D ( 'NONE', #153, #39, #224 ) ;
#174 = ADVANCED_FACE ( 'NONE', ( #226 ), #176, .F. ) ;
#175 = DIRECTION ( 'NONE',  ( -3.491481338843133355E-15, 1.224646799147353207E-16, -1.000000000000000000 ) ) ;
#176 = PLANE ( 'NONE',  #250 ) ;
#177 = DIRECTION ( 'NONE',  ( 4.275831445896958607E-31, 1.000000000000000000, 1.224646799147353207E-16 ) ) ;
#178 = DIRECTION ( 'NONE',  ( -3.491481338843133355E-15, 1.224646799147353207E-16, -1.000000000000000000 ) ) ;
#179 = FACE_OUTER_BOUND ( 'NONE', #287, .T. ) ;
#180 = FACE_OUTER_BOUND ( 'NONE', #5, .T. ) ;
#181 = AXIS2_PLACEMENT_3D ( 'NONE', #114, #12, #292 ) ;
#182 = CARTESIAN_POINT ( 'NONE',  ( 6.982962677686265724E-16, -2.449293598294705921E-17, 0.1999999999999999556 ) ) ;
#183 = ADVANCED_FACE ( 'NONE', ( #64, #150 ), #241, .T. ) ;
#184 = APPROVAL_STATUS ( 'not_yet_approved' ) ;
#185 = EDGE_LOOP ( 'NONE', ( #165 ) ) ;
#186 = PERSON_AND_ORGANIZATION ( #31, #286 ) ;
#187 = PERSON_AND_ORGANIZATION_ROLE ( 'design_supplier' ) ;
#188 = ORIENTED_EDGE ( 'NONE', *, *, #138, .F. ) ;
#189 = APPROVAL_DATE_TIME ( #209, #63 ) ;
#190 = EDGE_CURVE ( 'NONE', #160, #160, #143, .T. ) ;
#191 = ORIENTED_EDGE ( 'NONE', *, *, #112, .T. ) ;
#192 = CONICAL_SURFACE ( 'NONE', #51, 1.499999999999997335, 0.1745329251994259534 ) ;
#193 = PERSON_AND_ORGANIZATION ( #31, #286 ) ;
#194 = EDGE_LOOP ( 'NONE', ( #235 ) ) ;
#195 = DESIGN_CONTEXT ( 'detailed design', #236, 'design' ) ;
#196 = FACE_OUTER_BOUND ( 'NONE', #32, .T. ) ;
#197 = ADVANCED_FACE ( 'NONE', ( #267, #60 ), #25, .F. ) ;
#198 = DIRECTION ( 'NONE',  ( 0.0000000000000000000, 1.000000000000000000, 0.0000000000000000000 ) ) ;
#199 = DIRECTION ( 'NONE',  ( 0.0000000000000000000, 1.000000000000000000, 0.0000000000000000000 ) ) ;
#200 = DIRECTION ( 'NONE',  ( 0.0000000000000000000, 1.000000000000000000, 0.0000000000000000000 ) ) ;
#201 = CARTESIAN_POINT ( 'NONE',  ( 1.775977784784342036E-14, -6.229291519609259858E-16, 5.086602540378446058 ) ) ;
#202 = LOCAL_TIME ( 11, 39, 47.00000000000000000, #80 ) ;
#203 = CC_DESIGN_PERSON_AND_ORGANIZATION_ASSIGNMENT ( #193, #187, ( #270 ) ) ;
#204 = CARTESIAN_POINT ( 'NONE',  ( 3.491481338843133986E-14, 0.4399999999999985589, 10.00000000000000178 ) ) ;
#205 = AXIS2_PLACEMENT_3D ( 'NONE', #182, #299, #89 ) ;
#206 = CC_DESIGN_SECURITY_CLASSIFICATION ( #23, ( #270 ) ) ;
#207 = CARTESIAN_POINT ( 'NONE',  ( 1.326762908760390423E-13, 8.998558695971103225E-33, 38.00000000000000000 ) ) ;
#208 = VERTEX_POINT ( 'NONE', #204 ) ;
#209 = DATE_AND_TIME ( #144, #125 ) ;
#210 = ORIENTED_EDGE ( 'NONE', *, *, #34, .F. ) ;
#211 = AXIS2_PLACEMENT_3D ( 'NONE', #88, #82, #177 ) ;
#212 = EDGE_LOOP ( 'NONE', ( #191 ) ) ;
#213 = PRODUCT_DEFINITION_SHAPE ( 'NONE', 'NONE',  #87 ) ;
#214 = APPROVAL_ROLE ( '' ) ;
#215 = CARTESIAN_POINT ( 'NONE',  ( 1.745740669421566678E-14, 3.674411467521541697E-33, 5.000000000000000000 ) ) ;
#216 = APPROVAL_ROLE ( '' ) ;
#217 = DIRECTION ( 'NONE',  ( -4.275831445896958607E-31, -1.000000000000000000, -1.224646799147353207E-16 ) ) ;
#218 = ADVANCED_BREP_SHAPE_REPRESENTATION ( '200726', ( #79, #171, #110 ), #94 ) ;
#219 = EDGE_LOOP ( 'NONE', ( #77 ) ) ;
#220 = DIRECTION ( 'NONE',  ( -3.491481338843133355E-15, 1.224646799147353207E-16, -1.000000000000000000 ) ) ;
#221 = FACE_OUTER_BOUND ( 'NONE', #57, .T. ) ;
#222 = DIRECTION ( 'NONE',  ( 4.275831445896958607E-31, 1.000000000000000000, 1.224646799147353207E-16 ) ) ;
#223 = APPLICATION_CONTEXT ( 'configuration controlled 3d designs of mechanical parts and assemblies' ) ;
#224 = DIRECTION ( 'NONE',  ( 0.0000000000000000000, 1.000000000000000000, 0.0000000000000000000 ) ) ;
#225 = ADVANCED_FACE ( 'NONE', ( #59, #243 ), #192, .T. ) ;
#226 = FACE_OUTER_BOUND ( 'NONE', #234, .T. ) ;
#227 = DIRECTION ( 'NONE',  ( 3.491481338843133355E-15, -1.224646799147353207E-16, 1.000000000000000000 ) ) ;
#228 = CIRCLE ( 'NONE', #83, 0.3745299461620758552 ) ;
#229 = CARTESIAN_POINT ( 'NONE',  ( 0.0000000000000000000, 0.0000000000000000000, 0.0000000000000000000 ) ) ;
#230 = VERTEX_POINT ( 'NONE', #162 ) ;
#231 = DIRECTION ( 'NONE',  ( 3.491481338843133355E-15, -1.224646799147353207E-16, 1.000000000000000000 ) ) ;
#232 = CIRCLE ( 'NONE', #104, 1.200000000000003286 ) ;
#233 = CALENDAR_DATE ( 2021, 1, 12 ) ;
#234 = EDGE_LOOP ( 'NONE', ( #29 ) ) ;
#235 = ORIENTED_EDGE ( 'NONE', *, *, #190, .F. ) ;
#236 = APPLICATION_CONTEXT ( 'configuration controlled 3d designs of mechanical parts and assemblies' ) ;
#237 = CALENDAR_DATE ( 2021, 1, 12 ) ;
#238 = DATE_AND_TIME ( #233, #168 ) ;
#239 = ADVANCED_FACE ( 'NONE', ( #96, #180 ), #37, .T. ) ;
#240 = AXIS2_PLACEMENT_3D ( 'NONE', #268, #220, #35 ) ;
#241 = CYLINDRICAL_SURFACE ( 'NONE', #181, 0.4399999999999995026 ) ;
#242 = CARTESIAN_POINT ( 'NONE',  ( 3.491481338843133986E-14, -1.224646799147353454E-15, 10.00000000000000178 ) ) ;
#243 = FACE_OUTER_BOUND ( 'NONE', #145, .T. ) ;
#244 = AXIS2_PLACEMENT_3D ( 'NONE', #207, #273, #159 ) ;
#245 = ADVANCED_FACE ( 'NONE', ( #179 ), #157, .F. ) ;
#246 = DIRECTION ( 'NONE',  ( -3.491481338843133355E-15, 1.224646799147353207E-16, -1.000000000000000000 ) ) ;
#247 = VERTEX_POINT ( 'NONE', #41 ) ;
#248 = EDGE_CURVE ( 'NONE', #301, #301, #167, .T. ) ;
#249 = CARTESIAN_POINT ( 'NONE',  ( 1.316288464743861212E-13, 1.499999999999998668, 37.69999999999999574 ) ) ;
#250 = AXIS2_PLACEMENT_3D ( 'NONE', #111, #109, #16 ) ;
#251 = CC_DESIGN_APPROVAL ( #90, ( #87 ) ) ;
#252 = DIRECTION ( 'NONE',  ( -3.491481338843133355E-15, 1.224646799147353207E-16, -1.000000000000000000 ) ) ;
#253 = PLANE ( 'NONE',  #269 ) ;
#254 = CC_DESIGN_PERSON_AND_ORGANIZATION_ASSIGNMENT ( #256, #55, ( #23 ) ) ;
#255 = CONICAL_SURFACE ( 'NONE', #240, 1.200000000000003286, 0.7853981633974453924 ) ;
#256 = PERSON_AND_ORGANIZATION ( #31, #286 ) ;
#257 = APPROVAL_DATE_TIME ( #74, #90 ) ;
#258 = PRODUCT ( '200726', '200726', '', ( #101 ) ) ;
#259 = EDGE_LOOP ( 'NONE', ( #170 ) ) ;
#260 = APPROVAL_ROLE ( '' ) ;
#261 = PERSON_AND_ORGANIZATION ( #31, #286 ) ;
#262 = ORIENTED_EDGE ( 'NONE', *, *, #134, .T. ) ;
#263 = EDGE_LOOP ( 'NONE', ( #81 ) ) ;
#264 = DIRECTION ( 'NONE',  ( -3.491481338843133355E-15, 1.224646799147353207E-16, -1.000000000000000000 ) ) ;
#265 = CIRCLE ( 'NONE', #4, 1.499999999999997335 ) ;
#266 = CARTESIAN_POINT ( 'NONE',  ( 3.612739213212769111E-14, -1.267178336138866772E-15, 10.34729635533384595 ) ) ;
#267 = FACE_OUTER_BOUND ( 'NONE', #185, .T. ) ;
#268 = CARTESIAN_POINT ( 'NONE',  ( 1.326762908760390423E-13, -4.653657836759941941E-15, 38.00000000000000000 ) ) ;
#269 = AXIS2_PLACEMENT_3D ( 'NONE', #19, #231, #44 ) ;
#270 = PRODUCT_DEFINITION_FORMATION_WITH_SPECIFIED_SOURCE ( 'ANY', '', #258, .NOT_KNOWN. ) ;
#271 = CARTESIAN_POINT ( 'NONE',  ( 1.775977784784342036E-14, -6.229291519609259858E-16, 5.086602540378446058 ) ) ;
#272 = DIRECTION ( 'NONE',  ( 0.0000000000000000000, -1.000000000000000000, 0.0000000000000000000 ) ) ;
#273 = DIRECTION ( 'NONE',  ( -3.491481338843133355E-15, 1.224646799147353207E-16, -1.000000000000000000 ) ) ;
#274 = CC_DESIGN_APPROVAL ( #63, ( #270 ) ) ;
#275 = DIRECTION ( 'NONE',  ( 0.0000000000000000000, 1.000000000000000000, 0.0000000000000000000 ) ) ;
#276 = VERTEX_POINT ( 'NONE', #65 ) ;
#277 =( LENGTH_UNIT ( ) NAMED_UNIT ( * ) SI_UNIT ( .MILLI., .METRE. ) );
#278 = CC_DESIGN_APPROVAL ( #289, ( #23 ) ) ;
#279 = PERSON_AND_ORGANIZATION_ROLE ( 'design_owner' ) ;
#280 = FACE_OUTER_BOUND ( 'NONE', #54, .T. ) ;
#281 = EDGE_CURVE ( 'NONE', #139, #139, #232, .T. ) ;
#282 = SECURITY_CLASSIFICATION_LEVEL ( 'unclassified' ) ;
#283 = ORIENTED_EDGE ( 'NONE', *, *, #138, .T. ) ;
#284 = CIRCLE ( 'NONE', #123, 0.4899999999999993250 ) ;
#285 = PERSON_AND_ORGANIZATION ( #31, #286 ) ;
#286 = ORGANIZATION ( 'UNSPECIFIED', 'UNSPECIFIED', '' ) ;
#287 = EDGE_LOOP ( 'NONE', ( #1 ) ) ;
#288 = ORIENTED_EDGE ( 'NONE', *, *, #34, .T. ) ;
#289 = APPROVAL ( #184, 'UNSPECIFIED' ) ;
#290 = FACE_OUTER_BOUND ( 'NONE', #142, .T. ) ;
#291 = CONICAL_SURFACE ( 'NONE', #8, 0.4399999999999992806, 0.5235987755982952629 ) ;
#292 = DIRECTION ( 'NONE',  ( 4.275831445896958607E-31, 1.000000000000000000, 1.224646799147353207E-16 ) ) ;
#293 = LOCAL_TIME ( 11, 39, 47.00000000000000000, #26 ) ;
#294 = FACE_OUTER_BOUND ( 'NONE', #127, .T. ) ;
#295 = CARTESIAN_POINT ( 'NONE',  ( 6.982962677686265724E-16, -2.449293598294705921E-17, 0.1999999999999999556 ) ) ;
#296 = DIRECTION ( 'NONE',  ( -3.491481338843133355E-15, 1.224646799147353207E-16, -1.000000000000000000 ) ) ;
#297 = ADVANCED_FACE ( 'NONE', ( #91 ), #253, .T. ) ;
#298 = CLOSED_SHELL ( 'NONE', ( #2, #151, #183, #197, #225, #70, #106, #245 ) ) ;
#299 = DIRECTION ( 'NONE',  ( 3.491481338843133355E-15, -1.224646799147353207E-16, 1.000000000000000000 ) ) ;
#300 = DIRECTION ( 'NONE',  ( 1.000000000000000000, 0.0000000000000000000, 0.0000000000000000000 ) ) ;
#301 = VERTEX_POINT ( 'NONE', #92 ) ;
#302 = AXIS2_PLACEMENT_3D ( 'NONE', #152, #36, #131 ) ;
#303 = COORDINATED_UNIVERSAL_TIME_OFFSET ( 1, 0, .AHEAD. ) ;
ENDSEC;
END-ISO-10303-21;
