ISO-10303-21;
HEADER;
FILE_DESCRIPTION (( 'STEP AP203' ),
    '1' );
FILE_NAME ('200720.step',
    '2021-12-01T07:27:12',
    ( '' ),
    ( '' ),
    'SwSTEP 2.0',
    'SolidWorks 2019',
    '' );
FILE_SCHEMA (( 'CONFIG_CONTROL_DESIGN' ));
ENDSEC;

DATA;
#1 = APPROVAL ( #229, 'UNSPECIFIED' ) ;
#2 = DIRECTION ( 'NONE',  ( -4.275831445896958607E-31, -1.000000000000000000, -1.224646799147353207E-16 ) ) ;
#3 = APPLICATION_CONTEXT ( 'configuration controlled 3d designs of mechanical parts and assemblies' ) ;
#4 = CARTESIAN_POINT ( 'NONE',  ( 1.326762908760390423E-13, 1.199999999999998845, 38.00000000000000000 ) ) ;
#5 = CLOSED_SHELL ( 'NONE', ( #94, #108, #16, #40, #44, #169, #52 ) ) ;
#6 = FACE_BOUND ( 'NONE', #31, .T. ) ;
#7 = DATE_AND_TIME ( #274, #111 ) ;
#8 = ORIENTED_EDGE ( 'NONE', *, *, #184, .F. ) ;
#9 = PLANE ( 'NONE',  #207 ) ;
#10 = DATE_TIME_ROLE ( 'creation_date' ) ;
#11 = EDGE_LOOP ( 'NONE', ( #279 ) ) ;
#12 = DIRECTION ( 'NONE',  ( -3.491481338843133355E-15, 1.224646799147353207E-16, -1.000000000000000000 ) ) ;
#13 = EDGE_CURVE ( 'NONE', #159, #159, #175, .T. ) ;
#14 = DATE_AND_TIME ( #206, #268 ) ;
#15 = CALENDAR_DATE ( 2021, 1, 12 ) ;
#16 = ADVANCED_FACE ( 'NONE', ( #277, #146 ), #230, .F. ) ;
#17 = AXIS2_PLACEMENT_3D ( 'NONE', #141, #213, #47 ) ;
#18 = MANIFOLD_SOLID_BREP ( 'Corps-Déplacer/Copier1[2]', #214 ) ;
#19 = CARTESIAN_POINT ( 'NONE',  ( 1.745740669421566678E-14, -6.123233995736766282E-16, 5.000000000000000000 ) ) ;
#20 = CC_DESIGN_APPROVAL ( #255, ( #23 ) ) ;
#21 = DIRECTION ( 'NONE',  ( 3.491481338843133355E-15, -1.224646799147353207E-16, 1.000000000000000000 ) ) ;
#22 = DIRECTION ( 'NONE',  ( -3.491481338843133355E-15, 1.224646799147353207E-16, -1.000000000000000000 ) ) ;
#23 = PRODUCT_DEFINITION_FORMATION_WITH_SPECIFIED_SOURCE ( 'ANY', '', #242, .NOT_KNOWN. ) ;
#24 = CARTESIAN_POINT ( 'NONE',  ( 1.866998543791203065E-14, -6.548549365651905381E-16, 5.347296355333847728 ) ) ;
#25 = CC_DESIGN_DATE_AND_TIME_ASSIGNMENT ( #78, #10, ( #67 ) ) ;
#26 = DIRECTION ( 'NONE',  ( 0.0000000000000000000, 1.000000000000000000, 0.0000000000000000000 ) ) ;
#27 = AXIS2_PLACEMENT_3D ( 'NONE', #265, #28, #240 ) ;
#28 = DIRECTION ( 'NONE',  ( -3.491481338843133355E-15, 1.224646799147353207E-16, -1.000000000000000000 ) ) ;
#29 = VERTEX_POINT ( 'NONE', #93 ) ;
#30 = PLANE ( 'NONE',  #273 ) ;
#31 = EDGE_LOOP ( 'NONE', ( #121 ) ) ;
#32 = APPROVAL_DATE_TIME ( #223, #82 ) ;
#33 = AXIS2_PLACEMENT_3D ( 'NONE', #119, #115, #197 ) ;
#34 = APPLICATION_PROTOCOL_DEFINITION ( 'international standard', 'config_control_design', 1994, #234 ) ;
#35 = APPROVAL_ROLE ( '' ) ;
#36 = DIRECTION ( 'NONE',  ( 3.491481338843133355E-15, -1.224646799147353207E-16, 1.000000000000000000 ) ) ;
#37 = CARTESIAN_POINT ( 'NONE',  ( 1.326762908760390423E-13, 8.998558695971103225E-33, 38.00000000000000000 ) ) ;
#38 = CARTESIAN_POINT ( 'NONE',  ( 0.0000000000000000000, 0.0000000000000000000, 0.0000000000000000000 ) ) ;
#39 = PRODUCT_DEFINITION_SHAPE ( 'NONE', 'NONE',  #67 ) ;
#40 = ADVANCED_FACE ( 'NONE', ( #79, #57 ), #166, .T. ) ;
#41 = FACE_OUTER_BOUND ( 'NONE', #250, .T. ) ;
#42 = CIRCLE ( 'NONE', #90, 1.500000000000003331 ) ;
#43 = VERTEX_POINT ( 'NONE', #4 ) ;
#44 = ADVANCED_FACE ( 'NONE', ( #126, #76 ), #189, .T. ) ;
#45 = DIRECTION ( 'NONE',  ( -4.012354050806752162E-31, -1.000000000000000000, -1.129377263005736826E-16 ) ) ;
#46 =( NAMED_UNIT ( * ) SI_UNIT ( $, .STERADIAN. ) SOLID_ANGLE_UNIT ( ) );
#47 = DIRECTION ( 'NONE',  ( 4.012354050806752162E-31, 1.000000000000000000, 1.129377263005736826E-16 ) ) ;
#48 = FACE_OUTER_BOUND ( 'NONE', #58, .T. ) ;
#49 = PERSON_AND_ORGANIZATION ( #65, #70 ) ;
#50 = ORIENTED_EDGE ( 'NONE', *, *, #59, .T. ) ;
#51 = PERSON_AND_ORGANIZATION_ROLE ( 'creator' ) ;
#52 = ADVANCED_FACE ( 'NONE', ( #232 ), #9, .F. ) ;
#53 = EDGE_CURVE ( 'NONE', #193, #193, #42, .T. ) ;
#54 = APPROVAL_DATE_TIME ( #14, #255 ) ;
#55 = COORDINATED_UNIVERSAL_TIME_OFFSET ( 1, 0, .AHEAD. ) ;
#56 = COORDINATED_UNIVERSAL_TIME_OFFSET ( 1, 0, .AHEAD. ) ;
#57 = FACE_OUTER_BOUND ( 'NONE', #143, .T. ) ;
#58 = EDGE_LOOP ( 'NONE', ( #161 ) ) ;
#59 = EDGE_CURVE ( 'NONE', #134, #134, #233, .T. ) ;
#60 = FACE_OUTER_BOUND ( 'NONE', #246, .T. ) ;
#61 = CARTESIAN_POINT ( 'NONE',  ( 1.047444401652940007E-14, 1.799711739194221398E-33, 3.000000000000000000 ) ) ;
#62 = ADVANCED_FACE ( 'NONE', ( #190, #167 ), #148, .T. ) ;
#63 =( NAMED_UNIT ( * ) PLANE_ANGLE_UNIT ( ) SI_UNIT ( $, .RADIAN. ) );
#64 = DIRECTION ( 'NONE',  ( -3.491481338843133355E-15, 1.224646799147353207E-16, -1.000000000000000000 ) ) ;
#65 = PERSON ( 'UNSPECIFIED', 'UNSPECIFIED', 'UNSPECIFIED', ('UNSPECIFIED'), ('UNSPECIFIED'), ('UNSPECIFIED') ) ;
#66 = CARTESIAN_POINT ( 'NONE',  ( 1.745740669421566678E-14, 0.2399999999999993250, 5.000000000000000000 ) ) ;
#67 = PRODUCT_DEFINITION ( 'UNKNOWN', '', #23, #191 ) ;
#68 =( LENGTH_UNIT ( ) NAMED_UNIT ( * ) SI_UNIT ( .MILLI., .METRE. ) );
#69 = EDGE_LOOP ( 'NONE', ( #256 ) ) ;
#70 = ORGANIZATION ( 'UNSPECIFIED', 'UNSPECIFIED', '' ) ;
#71 = DIRECTION ( 'NONE',  ( 4.275831445896958607E-31, 1.000000000000000000, 1.224646799147352961E-16 ) ) ;
#72 = EDGE_LOOP ( 'NONE', ( #261 ) ) ;
#73 = CALENDAR_DATE ( 2021, 1, 12 ) ;
#74 = EDGE_LOOP ( 'NONE', ( #236 ) ) ;
#75 = PRODUCT_RELATED_PRODUCT_CATEGORY ( 'detail', '', ( #242 ) ) ;
#76 = FACE_OUTER_BOUND ( 'NONE', #244, .T. ) ;
#77 = LOCAL_TIME ( 8, 27, 12.00000000000000000, #56 ) ;
#78 = DATE_AND_TIME ( #73, #147 ) ;
#79 = FACE_BOUND ( 'NONE', #182, .T. ) ;
#80 = DIRECTION ( 'NONE',  ( 4.275831445896959482E-31, 1.000000000000000000, 1.224646799147353207E-16 ) ) ;
#81 = CC_DESIGN_SECURITY_CLASSIFICATION ( #87, ( #23 ) ) ;
#82 = APPROVAL ( #144, 'UNSPECIFIED' ) ;
#83 = CC_DESIGN_DATE_AND_TIME_ASSIGNMENT ( #252, #200, ( #87 ) ) ;
#84 = CONICAL_SURFACE ( 'NONE', #27, 1.200000000000003286, 0.7853981633974453924 ) ;
#85 = DIRECTION ( 'NONE',  ( -3.491481338843133355E-15, 1.224646799147353207E-16, -1.000000000000000000 ) ) ;
#86 = DIRECTION ( 'NONE',  ( 3.491481338843133355E-15, -1.224646799147353207E-16, 1.000000000000000000 ) ) ;
#87 = SECURITY_CLASSIFICATION ( '', '', #187 ) ;
#88 = EDGE_CURVE ( 'NONE', #282, #282, #253, .T. ) ;
#89 = CARTESIAN_POINT ( 'NONE',  ( 4.301781681338838116E-14, -1.508861899983082564E-15, 12.32079241977042727 ) ) ;
#90 = AXIS2_PLACEMENT_3D ( 'NONE', #128, #259, #208 ) ;
#91 = VERTEX_POINT ( 'NONE', #283 ) ;
#92 = FACE_OUTER_BOUND ( 'NONE', #157, .T. ) ;
#93 = CARTESIAN_POINT ( 'NONE',  ( 3.491481338843133848E-16, 0.2399999999999993527, 0.1000000000000000056 ) ) ;
#94 = ADVANCED_FACE ( 'NONE', ( #60 ), #150, .F. ) ;
#95 = CARTESIAN_POINT ( 'NONE',  ( 1.047444401652940007E-14, 0.2399999999999993250, 3.000000000000000000 ) ) ;
#96 = CARTESIAN_POINT ( 'NONE',  ( 3.491481338843132862E-16, -1.224646799147352961E-17, 0.09999999999999997780 ) ) ;
#97 = APPROVAL_PERSON_ORGANIZATION ( #142, #82, #35 ) ;
#98 = PERSON_AND_ORGANIZATION ( #65, #70 ) ;
#99 = ORIENTED_EDGE ( 'NONE', *, *, #13, .F. ) ;
#100 = ORIENTED_EDGE ( 'NONE', *, *, #59, .F. ) ;
#101 = DIRECTION ( 'NONE',  ( 4.401092268553843053E-31, 1.000000000000000000, 1.224646799147353207E-16 ) ) ;
#102 = ORIENTED_EDGE ( 'NONE', *, *, #135, .T. ) ;
#103 = DIRECTION ( 'NONE',  ( -3.491481338843133355E-15, 1.224646799147353207E-16, -1.000000000000000000 ) ) ;
#104 = DIRECTION ( 'NONE',  ( 0.0000000000000000000, 0.0000000000000000000, 1.000000000000000000 ) ) ;
#105 = APPLICATION_PROTOCOL_DEFINITION ( 'international standard', 'config_control_design', 1994, #3 ) ;
#106 = AXIS2_PLACEMENT_3D ( 'NONE', #211, #21, #170 ) ;
#107 = ADVANCED_FACE ( 'NONE', ( #41 ), #129, .F. ) ;
#108 = ADVANCED_FACE ( 'NONE', ( #151, #92 ), #138, .T. ) ;
#109 = DIRECTION ( 'NONE',  ( 0.0000000000000000000, 1.000000000000000000, 0.0000000000000000000 ) ) ;
#110 = AXIS2_PLACEMENT_3D ( 'NONE', #186, #12, #101 ) ;
#111 = LOCAL_TIME ( 8, 27, 12.00000000000000000, #249 ) ;
#112 = DIRECTION ( 'NONE',  ( 3.491481338843133355E-15, -1.224646799147353207E-16, 1.000000000000000000 ) ) ;
#113 = ORIENTED_EDGE ( 'NONE', *, *, #135, .F. ) ;
#114 = AXIS2_PLACEMENT_3D ( 'NONE', #24, #64, #26 ) ;
#115 = DIRECTION ( 'NONE',  ( -3.491481338843133355E-15, 1.224646799147353207E-16, -1.000000000000000000 ) ) ;
#116 = MANIFOLD_SOLID_BREP ( 'Corps-Déplacer/Copier1[1]', #5 ) ;
#117 = CARTESIAN_POINT ( 'NONE',  ( 1.316288464743861212E-13, 1.499999999999998668, 37.69999999999999574 ) ) ;
#118 = ORIENTED_EDGE ( 'NONE', *, *, #88, .T. ) ;
#119 = CARTESIAN_POINT ( 'NONE',  ( 1.326762908760390423E-13, -4.653657836759941941E-15, 38.00000000000000000 ) ) ;
#120 = SHAPE_DEFINITION_REPRESENTATION ( #39, #263 ) ;
#121 = ORIENTED_EDGE ( 'NONE', *, *, #264, .F. ) ;
#122 = ORIENTED_EDGE ( 'NONE', *, *, #202, .F. ) ;
#123 = APPROVAL_DATE_TIME ( #7, #1 ) ;
#124 = EDGE_CURVE ( 'NONE', #29, #29, #260, .T. ) ;
#125 = PERSON_AND_ORGANIZATION ( #65, #70 ) ;
#126 = FACE_OUTER_BOUND ( 'NONE', #11, .T. ) ;
#127 = CIRCLE ( 'NONE', #114, 0.2703844939755807308 ) ;
#128 = CARTESIAN_POINT ( 'NONE',  ( 1.316288464743861212E-13, -4.616918432785521081E-15, 37.69999999999999574 ) ) ;
#129 = PLANE ( 'NONE',  #106 ) ;
#130 = AXIS2_PLACEMENT_3D ( 'NONE', #89, #22, #109 ) ;
#131 = AXIS2_PLACEMENT_3D ( 'NONE', #96, #177, #45 ) ;
#132 = LOCAL_TIME ( 8, 27, 12.00000000000000000, #278 ) ;
#133 = FACE_OUTER_BOUND ( 'NONE', #69, .T. ) ;
#134 = VERTEX_POINT ( 'NONE', #66 ) ;
#135 = EDGE_CURVE ( 'NONE', #196, #196, #127, .T. ) ;
#136 = CC_DESIGN_PERSON_AND_ORGANIZATION_ASSIGNMENT ( #180, #163, ( #67 ) ) ;
#137 = AXIS2_PLACEMENT_3D ( 'NONE', #162, #103, #203 ) ;
#138 = CYLINDRICAL_SURFACE ( 'NONE', #247, 0.2399999999999998246 ) ;
#139 = CARTESIAN_POINT ( 'NONE',  ( 1.047444401652940007E-14, 1.799711739194221398E-33, 3.000000000000000000 ) ) ;
#140 = ORIENTED_EDGE ( 'NONE', *, *, #124, .F. ) ;
#141 = CARTESIAN_POINT ( 'NONE',  ( 3.491481338843132862E-16, -1.224646799147352961E-17, 0.09999999999999997780 ) ) ;
#142 = PERSON_AND_ORGANIZATION ( #65, #70 ) ;
#143 = EDGE_LOOP ( 'NONE', ( #118 ) ) ;
#144 = APPROVAL_STATUS ( 'not_yet_approved' ) ;
#145 = PERSON_AND_ORGANIZATION ( #65, #70 ) ;
#146 = FACE_OUTER_BOUND ( 'NONE', #239, .T. ) ;
#147 = LOCAL_TIME ( 8, 27, 12.00000000000000000, #205 ) ;
#148 = CYLINDRICAL_SURFACE ( 'NONE', #212, 0.2399999999999995470 ) ;
#149 = AXIS2_PLACEMENT_3D ( 'NONE', #219, #195, #216 ) ;
#150 = PLANE ( 'NONE',  #221 ) ;
#151 = FACE_OUTER_BOUND ( 'NONE', #227, .T. ) ;
#152 = DIRECTION ( 'NONE',  ( -3.491481338843133355E-15, 1.224646799147353207E-16, -1.000000000000000000 ) ) ;
#153 = AXIS2_PLACEMENT_3D ( 'NONE', #262, #269, #71 ) ;
#154 = DIRECTION ( 'NONE',  ( 4.275831445896957731E-31, 1.000000000000000000, 1.224646799147352961E-16 ) ) ;
#155 = ADVANCED_FACE ( 'NONE', ( #176 ), #30, .T. ) ;
#156 = CARTESIAN_POINT ( 'NONE',  ( 1.866998543791203065E-14, 0.2703844939755800647, 5.347296355333847728 ) ) ;
#157 = EDGE_LOOP ( 'NONE', ( #50 ) ) ;
#158 = EDGE_LOOP ( 'NONE', ( #8 ) ) ;
#159 = VERTEX_POINT ( 'NONE', #266 ) ;
#160 = DIRECTION ( 'NONE',  ( 1.000000000000000000, 0.0000000000000000000, 0.0000000000000000000 ) ) ;
#161 = ORIENTED_EDGE ( 'NONE', *, *, #124, .T. ) ;
#162 = CARTESIAN_POINT ( 'NONE',  ( 1.047444401652940007E-14, -3.673940397442059868E-16, 3.000000000000000000 ) ) ;
#163 = PERSON_AND_ORGANIZATION_ROLE ( 'creator' ) ;
#164 = APPROVAL_ROLE ( '' ) ;
#165 = CALENDAR_DATE ( 2021, 1, 12 ) ;
#166 = CONICAL_SURFACE ( 'NONE', #194, 1.499999999999996891, 0.1745329251994261477 ) ;
#167 = FACE_OUTER_BOUND ( 'NONE', #72, .T. ) ;
#168 = AXIS2_PLACEMENT_3D ( 'NONE', #280, #251, #80 ) ;
#169 = ADVANCED_FACE ( 'NONE', ( #133, #173 ), #84, .T. ) ;
#170 = DIRECTION ( 'NONE',  ( -4.275831445896958607E-31, -1.000000000000000000, -1.224646799147353207E-16 ) ) ;
#171 = CC_DESIGN_PERSON_AND_ORGANIZATION_ASSIGNMENT ( #49, #276, ( #87 ) ) ;
#172 = CC_DESIGN_APPROVAL ( #82, ( #87 ) ) ;
#173 = FACE_BOUND ( 'NONE', #74, .T. ) ;
#174 = CARTESIAN_POINT ( 'NONE',  ( 0.0000000000000000000, 0.0000000000000000000, 0.0000000000000000000 ) ) ;
#175 = CIRCLE ( 'NONE', #137, 0.2399999999999997136 ) ;
#176 = FACE_OUTER_BOUND ( 'NONE', #201, .T. ) ;
#177 = DIRECTION ( 'NONE',  ( 3.491481338843133355E-15, -1.224646799147353207E-16, 1.000000000000000000 ) ) ;
#178 = ORIENTED_EDGE ( 'NONE', *, *, #13, .T. ) ;
#179 =( GEOMETRIC_REPRESENTATION_CONTEXT ( 3 ) GLOBAL_UNCERTAINTY_ASSIGNED_CONTEXT ( ( #181 ) ) GLOBAL_UNIT_ASSIGNED_CONTEXT ( ( #68, #63, #46 ) ) REPRESENTATION_CONTEXT ( 'NONE', 'WORKASPACE' ) );
#180 = PERSON_AND_ORGANIZATION ( #65, #70 ) ;
#181 = UNCERTAINTY_MEASURE_WITH_UNIT (LENGTH_MEASURE( 1.000000000000000082E-05 ), #68, 'distance_accuracy_value', 'NONE');
#182 = EDGE_LOOP ( 'NONE', ( #113 ) ) ;
#183 = CARTESIAN_POINT ( 'NONE',  ( 4.301781681338838116E-14, -1.508861899983082564E-15, 12.32079241977042727 ) ) ;
#184 = EDGE_CURVE ( 'NONE', #43, #43, #204, .T. ) ;
#185 = MECHANICAL_CONTEXT ( 'NONE', #234, 'mechanical' ) ;
#186 = CARTESIAN_POINT ( 'NONE',  ( 1.745740669421566678E-14, -4.336808689942017736E-16, 5.000000000000000000 ) ) ;
#187 = SECURITY_CLASSIFICATION_LEVEL ( 'unclassified' ) ;
#188 = APPROVAL_STATUS ( 'not_yet_approved' ) ;
#189 = CYLINDRICAL_SURFACE ( 'NONE', #168, 1.500000000000000000 ) ;
#190 = FACE_OUTER_BOUND ( 'NONE', #224, .T. ) ;
#191 = DESIGN_CONTEXT ( 'detailed design', #3, 'design' ) ;
#192 = AXIS2_PLACEMENT_3D ( 'NONE', #271, #104, #160 ) ;
#193 = VERTEX_POINT ( 'NONE', #117 ) ;
#194 = AXIS2_PLACEMENT_3D ( 'NONE', #183, #36, #275 ) ;
#195 = DIRECTION ( 'NONE',  ( -3.491481338843133355E-15, 1.224646799147353207E-16, -1.000000000000000000 ) ) ;
#196 = VERTEX_POINT ( 'NONE', #156 ) ;
#197 = DIRECTION ( 'NONE',  ( 0.0000000000000000000, 1.000000000000000000, 0.0000000000000000000 ) ) ;
#198 = APPROVAL_ROLE ( '' ) ;
#199 = DIRECTION ( 'NONE',  ( -3.491481338843133355E-15, 1.224646799147353207E-16, -1.000000000000000000 ) ) ;
#200 = DATE_TIME_ROLE ( 'classification_date' ) ;
#201 = EDGE_LOOP ( 'NONE', ( #122 ) ) ;
#202 = EDGE_CURVE ( 'NONE', #243, #243, #237, .T. ) ;
#203 = DIRECTION ( 'NONE',  ( 0.0000000000000000000, 1.000000000000000000, 0.0000000000000000000 ) ) ;
#204 = CIRCLE ( 'NONE', #33, 1.200000000000003286 ) ;
#205 = COORDINATED_UNIVERSAL_TIME_OFFSET ( 1, 0, .AHEAD. ) ;
#206 = CALENDAR_DATE ( 2021, 1, 12 ) ;
#207 = AXIS2_PLACEMENT_3D ( 'NONE', #37, #199, #272 ) ;
#208 = DIRECTION ( 'NONE',  ( 0.0000000000000000000, 1.000000000000000000, 0.0000000000000000000 ) ) ;
#209 = CC_DESIGN_PERSON_AND_ORGANIZATION_ASSIGNMENT ( #245, #225, ( #23 ) ) ;
#210 = DIRECTION ( 'NONE',  ( 4.275831445896959482E-31, 1.000000000000000000, 1.224646799147353207E-16 ) ) ;
#211 = CARTESIAN_POINT ( 'NONE',  ( -6.262591299906268024E-32, 2.196621332176293410E-33, -1.793677437205296044E-17 ) ) ;
#212 = AXIS2_PLACEMENT_3D ( 'NONE', #38, #85, #210 ) ;
#213 = DIRECTION ( 'NONE',  ( -3.491481338843133355E-15, 1.224646799147353207E-16, -1.000000000000000000 ) ) ;
#214 = CLOSED_SHELL ( 'NONE', ( #107, #217, #62, #155 ) ) ;
#215 = DIRECTION ( 'NONE',  ( -3.491481338843133355E-15, 1.224646799147353207E-16, -1.000000000000000000 ) ) ;
#216 = DIRECTION ( 'NONE',  ( 0.0000000000000000000, 1.000000000000000000, 0.0000000000000000000 ) ) ;
#217 = ADVANCED_FACE ( 'NONE', ( #6, #48 ), #254, .T. ) ;
#218 = ORIENTED_EDGE ( 'NONE', *, *, #264, .T. ) ;
#219 = CARTESIAN_POINT ( 'NONE',  ( 1.047444401652940007E-14, -3.673940397442059868E-16, 3.000000000000000000 ) ) ;
#220 = ORIENTED_EDGE ( 'NONE', *, *, #53, .T. ) ;
#221 = AXIS2_PLACEMENT_3D ( 'NONE', #61, #86, #238 ) ;
#222 = AXIS2_PLACEMENT_3D ( 'NONE', #19, #152, #257 ) ;
#223 = DATE_AND_TIME ( #15, #77 ) ;
#224 = EDGE_LOOP ( 'NONE', ( #140 ) ) ;
#225 = PERSON_AND_ORGANIZATION_ROLE ( 'design_supplier' ) ;
#226 = CIRCLE ( 'NONE', #153, 0.1822649730810375901 ) ;
#227 = EDGE_LOOP ( 'NONE', ( #99 ) ) ;
#228 = PERSON_AND_ORGANIZATION_ROLE ( 'design_owner' ) ;
#229 = APPROVAL_STATUS ( 'not_yet_approved' ) ;
#230 = TOROIDAL_SURFACE ( 'NONE', #110, 2.239999999999999769, 2.000000000000000444 ) ;
#231 = APPROVAL_PERSON_ORGANIZATION ( #125, #1, #198 ) ;
#232 = FACE_OUTER_BOUND ( 'NONE', #158, .T. ) ;
#233 = CIRCLE ( 'NONE', #222, 0.2399999999999999634 ) ;
#234 = APPLICATION_CONTEXT ( 'configuration controlled 3d designs of mechanical parts and assemblies' ) ;
#235 = CC_DESIGN_PERSON_AND_ORGANIZATION_ASSIGNMENT ( #98, #51, ( #23 ) ) ;
#236 = ORIENTED_EDGE ( 'NONE', *, *, #184, .T. ) ;
#237 = CIRCLE ( 'NONE', #149, 0.2399999999999997136 ) ;
#238 = DIRECTION ( 'NONE',  ( -4.275831445896958607E-31, -1.000000000000000000, -1.224646799147353207E-16 ) ) ;
#239 = EDGE_LOOP ( 'NONE', ( #102 ) ) ;
#240 = DIRECTION ( 'NONE',  ( 0.0000000000000000000, 1.000000000000000000, 0.0000000000000000000 ) ) ;
#241 = CARTESIAN_POINT ( 'NONE',  ( 4.301781681338838116E-14, 1.499999999999995559, 12.32079241977042727 ) ) ;
#242 = PRODUCT ( '200720', '200720', '', ( #185 ) ) ;
#243 = VERTEX_POINT ( 'NONE', #95 ) ;
#244 = EDGE_LOOP ( 'NONE', ( #220 ) ) ;
#245 = PERSON_AND_ORGANIZATION ( #65, #70 ) ;
#246 = EDGE_LOOP ( 'NONE', ( #178 ) ) ;
#247 = AXIS2_PLACEMENT_3D ( 'NONE', #174, #215, #154 ) ;
#248 = PERSON_AND_ORGANIZATION ( #65, #70 ) ;
#249 = COORDINATED_UNIVERSAL_TIME_OFFSET ( 1, 0, .AHEAD. ) ;
#250 = EDGE_LOOP ( 'NONE', ( #218 ) ) ;
#251 = DIRECTION ( 'NONE',  ( -3.491481338843133355E-15, 1.224646799147353207E-16, -1.000000000000000000 ) ) ;
#252 = DATE_AND_TIME ( #165, #132 ) ;
#253 = CIRCLE ( 'NONE', #130, 1.499999999999996891 ) ;
#254 = CONICAL_SURFACE ( 'NONE', #131, 0.2399999999999993527, 0.5235987755982927094 ) ;
#255 = APPROVAL ( #188, 'UNSPECIFIED' ) ;
#256 = ORIENTED_EDGE ( 'NONE', *, *, #53, .F. ) ;
#257 = DIRECTION ( 'NONE',  ( 0.0000000000000000000, 1.000000000000000000, 0.0000000000000000000 ) ) ;
#258 = APPROVAL_PERSON_ORGANIZATION ( #248, #255, #164 ) ;
#259 = DIRECTION ( 'NONE',  ( -3.491481338843133355E-15, 1.224646799147353207E-16, -1.000000000000000000 ) ) ;
#260 = CIRCLE ( 'NONE', #17, 0.2399999999999993527 ) ;
#261 = ORIENTED_EDGE ( 'NONE', *, *, #202, .T. ) ;
#262 = CARTESIAN_POINT ( 'NONE',  ( -1.252518259981253605E-31, 4.393242664352586820E-33, -3.587354874410592088E-17 ) ) ;
#263 = ADVANCED_BREP_SHAPE_REPRESENTATION ( '200720', ( #116, #18, #192 ), #179 ) ;
#264 = EDGE_CURVE ( 'NONE', #91, #91, #226, .T. ) ;
#265 = CARTESIAN_POINT ( 'NONE',  ( 1.326762908760390423E-13, -4.653657836759941941E-15, 38.00000000000000000 ) ) ;
#266 = CARTESIAN_POINT ( 'NONE',  ( 1.047444401652940007E-14, 0.2399999999999993250, 3.000000000000000000 ) ) ;
#267 = CC_DESIGN_APPROVAL ( #1, ( #67 ) ) ;
#268 = LOCAL_TIME ( 8, 27, 12.00000000000000000, #55 ) ;
#269 = DIRECTION ( 'NONE',  ( -3.491481338843133355E-15, 1.224646799147353207E-16, -1.000000000000000000 ) ) ;
#270 = EDGE_LOOP ( 'NONE', ( #100 ) ) ;
#271 = CARTESIAN_POINT ( 'NONE',  ( 0.0000000000000000000, 0.0000000000000000000, 0.0000000000000000000 ) ) ;
#272 = DIRECTION ( 'NONE',  ( 4.275831445896958607E-31, 1.000000000000000000, 1.224646799147353207E-16 ) ) ;
#273 = AXIS2_PLACEMENT_3D ( 'NONE', #139, #112, #2 ) ;
#274 = CALENDAR_DATE ( 2021, 1, 12 ) ;
#275 = DIRECTION ( 'NONE',  ( 0.0000000000000000000, -1.000000000000000000, 0.0000000000000000000 ) ) ;
#276 = PERSON_AND_ORGANIZATION_ROLE ( 'classification_officer' ) ;
#277 = FACE_OUTER_BOUND ( 'NONE', #270, .T. ) ;
#278 = COORDINATED_UNIVERSAL_TIME_OFFSET ( 1, 0, .AHEAD. ) ;
#279 = ORIENTED_EDGE ( 'NONE', *, *, #88, .F. ) ;
#280 = CARTESIAN_POINT ( 'NONE',  ( 0.0000000000000000000, 0.0000000000000000000, 0.0000000000000000000 ) ) ;
#281 = CC_DESIGN_PERSON_AND_ORGANIZATION_ASSIGNMENT ( #145, #228, ( #242 ) ) ;
#282 = VERTEX_POINT ( 'NONE', #241 ) ;
#283 = CARTESIAN_POINT ( 'NONE',  ( -4.731839565957903391E-32, 0.1822649730810375901, -1.355252715606880543E-17 ) ) ;
ENDSEC;
END-ISO-10303-21;
