ISO-10303-21;
HEADER;
FILE_DESCRIPTION (( 'STEP AP203' ),
    '1' );
FILE_NAME ('200719.step',
    '2021-12-01T07:27:11',
    ( '' ),
    ( '' ),
    'SwSTEP 2.0',
    'SolidWorks 2019',
    '' );
FILE_SCHEMA (( 'CONFIG_CONTROL_DESIGN' ));
ENDSEC;

DATA;
#1 = PRODUCT_RELATED_PRODUCT_CATEGORY ( 'detail', '', ( #180 ) ) ;
#2 = DATE_AND_TIME ( #108, #216 ) ;
#3 = APPROVAL_STATUS ( 'not_yet_approved' ) ;
#4 = ORIENTED_EDGE ( 'NONE', *, *, #130, .F. ) ;
#5 = ADVANCED_FACE ( 'NONE', ( #91, #175 ), #101, .F. ) ;
#6 = APPROVAL_ROLE ( '' ) ;
#7 = CARTESIAN_POINT ( 'NONE',  ( 1.866998543791203065E-14, -6.548549365651905381E-16, 5.347296355333847728 ) ) ;
#8 = APPLICATION_CONTEXT ( 'configuration controlled 3d designs of mechanical parts and assemblies' ) ;
#9 = DIRECTION ( 'NONE',  ( 0.0000000000000000000, 0.0000000000000000000, 1.000000000000000000 ) ) ;
#10 = APPROVAL_ROLE ( '' ) ;
#11 = PRODUCT_DEFINITION ( 'UNKNOWN', '', #270, #276 ) ;
#12 = AXIS2_PLACEMENT_3D ( 'NONE', #197, #218, #132 ) ;
#13 = FACE_OUTER_BOUND ( 'NONE', #40, .T. ) ;
#14 = ADVANCED_FACE ( 'NONE', ( #272 ), #261, .F. ) ;
#15 = CC_DESIGN_APPROVAL ( #36, ( #270 ) ) ;
#16 = AXIS2_PLACEMENT_3D ( 'NONE', #142, #229, #35 ) ;
#17 = FACE_OUTER_BOUND ( 'NONE', #112, .T. ) ;
#18 = CARTESIAN_POINT ( 'NONE',  ( 4.321582855979354351E-14, -1.515807217110540338E-15, 12.37750523796660751 ) ) ;
#19 = EDGE_LOOP ( 'NONE', ( #255 ) ) ;
#20 = DIRECTION ( 'NONE',  ( 3.491481338843133355E-15, -1.224646799147353207E-16, 1.000000000000000000 ) ) ;
#21 = EDGE_CURVE ( 'NONE', #63, #63, #234, .T. ) ;
#22 = COORDINATED_UNIVERSAL_TIME_OFFSET ( 1, 0, .AHEAD. ) ;
#23 = ORIENTED_EDGE ( 'NONE', *, *, #21, .T. ) ;
#24 = CARTESIAN_POINT ( 'NONE',  ( 4.321582855979354351E-14, 1.499999999999995559, 12.37750523796660751 ) ) ;
#25 = CARTESIAN_POINT ( 'NONE',  ( 1.316288464743861212E-13, 1.499999999999998668, 37.69999999999999574 ) ) ;
#26 = APPROVAL_PERSON_ORGANIZATION ( #52, #36, #139 ) ;
#27 = EDGE_LOOP ( 'NONE', ( #37 ) ) ;
#28 = AXIS2_PLACEMENT_3D ( 'NONE', #237, #100, #106 ) ;
#29 = PERSON_AND_ORGANIZATION_ROLE ( 'design_owner' ) ;
#30 = ADVANCED_FACE ( 'NONE', ( #217 ), #277, .F. ) ;
#31 = APPROVAL_PERSON_ORGANIZATION ( #70, #99, #10 ) ;
#32 = CIRCLE ( 'NONE', #16, 0.2299999999999997047 ) ;
#33 = DIRECTION ( 'NONE',  ( -3.491481338843133355E-15, 1.224646799147353207E-16, -1.000000000000000000 ) ) ;
#34 = UNCERTAINTY_MEASURE_WITH_UNIT (LENGTH_MEASURE( 1.000000000000000082E-05 ), #247, 'distance_accuracy_value', 'NONE');
#35 = DIRECTION ( 'NONE',  ( 0.0000000000000000000, 1.000000000000000000, 0.0000000000000000000 ) ) ;
#36 = APPROVAL ( #155, 'UNSPECIFIED' ) ;
#37 = ORIENTED_EDGE ( 'NONE', *, *, #73, .T. ) ;
#38 = DIRECTION ( 'NONE',  ( -3.491481338843133355E-15, 1.224646799147353207E-16, -1.000000000000000000 ) ) ;
#39 = CC_DESIGN_SECURITY_CLASSIFICATION ( #206, ( #270 ) ) ;
#40 = EDGE_LOOP ( 'NONE', ( #280 ) ) ;
#41 = FACE_OUTER_BOUND ( 'NONE', #19, .T. ) ;
#42 = CLOSED_SHELL ( 'NONE', ( #30, #78, #5, #204, #67, #219, #227 ) ) ;
#43 = ADVANCED_FACE ( 'NONE', ( #114, #250 ), #254, .T. ) ;
#44 = EDGE_LOOP ( 'NONE', ( #136 ) ) ;
#45 = COORDINATED_UNIVERSAL_TIME_OFFSET ( 1, 0, .AHEAD. ) ;
#46 = CARTESIAN_POINT ( 'NONE',  ( 1.326762908760390423E-13, 1.199999999999998845, 38.00000000000000000 ) ) ;
#47 = DIRECTION ( 'NONE',  ( 3.491481338843133355E-15, -1.224646799147353207E-16, 1.000000000000000000 ) ) ;
#48 = AXIS2_PLACEMENT_3D ( 'NONE', #123, #128, #189 ) ;
#49 = MECHANICAL_CONTEXT ( 'NONE', #238, 'mechanical' ) ;
#50 = ORIENTED_EDGE ( 'NONE', *, *, #163, .T. ) ;
#51 = ADVANCED_FACE ( 'NONE', ( #13, #105 ), #236, .T. ) ;
#52 = PERSON_AND_ORGANIZATION ( #225, #252 ) ;
#53 = CC_DESIGN_DATE_AND_TIME_ASSIGNMENT ( #111, #201, ( #206 ) ) ;
#54 = PRODUCT_DEFINITION_SHAPE ( 'NONE', 'NONE',  #11 ) ;
#55 = CC_DESIGN_PERSON_AND_ORGANIZATION_ASSIGNMENT ( #194, #29, ( #180 ) ) ;
#56 = DIRECTION ( 'NONE',  ( 4.275831445896959482E-31, 1.000000000000000000, 1.224646799147353207E-16 ) ) ;
#57 = AXIS2_PLACEMENT_3D ( 'NONE', #258, #205, #59 ) ;
#58 = CARTESIAN_POINT ( 'NONE',  ( 0.0000000000000000000, 0.0000000000000000000, 0.0000000000000000000 ) ) ;
#59 = DIRECTION ( 'NONE',  ( 0.0000000000000000000, 1.000000000000000000, 0.0000000000000000000 ) ) ;
#60 = EDGE_CURVE ( 'NONE', #93, #93, #125, .T. ) ;
#61 = DIRECTION ( 'NONE',  ( -3.491481338843133355E-15, 1.224646799147353207E-16, -1.000000000000000000 ) ) ;
#62 = FACE_BOUND ( 'NONE', #177, .T. ) ;
#63 = VERTEX_POINT ( 'NONE', #46 ) ;
#64 = SECURITY_CLASSIFICATION_LEVEL ( 'unclassified' ) ;
#65 = APPROVAL_PERSON_ORGANIZATION ( #135, #240, #6 ) ;
#66 = VERTEX_POINT ( 'NONE', #72 ) ;
#67 = ADVANCED_FACE ( 'NONE', ( #231, #184 ), #85, .T. ) ;
#68 = PERSON_AND_ORGANIZATION_ROLE ( 'classification_officer' ) ;
#69 = APPROVAL_DATE_TIME ( #129, #240 ) ;
#70 = PERSON_AND_ORGANIZATION ( #225, #252 ) ;
#71 = EDGE_LOOP ( 'NONE', ( #165 ) ) ;
#72 = CARTESIAN_POINT ( 'NONE',  ( 1.745740669421566678E-14, 0.2299999999999993161, 5.000000000000000000 ) ) ;
#73 = EDGE_CURVE ( 'NONE', #174, #174, #32, .T. ) ;
#74 = CALENDAR_DATE ( 2021, 1, 12 ) ;
#75 = APPROVAL_DATE_TIME ( #248, #36 ) ;
#76 = AXIS2_PLACEMENT_3D ( 'NONE', #7, #178, #149 ) ;
#77 = CARTESIAN_POINT ( 'NONE',  ( 1.745740669421566678E-14, -4.336808689942017736E-16, 5.000000000000000000 ) ) ;
#78 = ADVANCED_FACE ( 'NONE', ( #213, #260 ), #186, .T. ) ;
#79 = DIRECTION ( 'NONE',  ( 0.0000000000000000000, 1.000000000000000000, 0.0000000000000000000 ) ) ;
#80 = DIRECTION ( 'NONE',  ( 0.0000000000000000000, 1.000000000000000000, 0.0000000000000000000 ) ) ;
#81 = AXIS2_PLACEMENT_3D ( 'NONE', #208, #203, #79 ) ;
#82 = FACE_OUTER_BOUND ( 'NONE', #195, .T. ) ;
#83 = EDGE_CURVE ( 'NONE', #220, #220, #190, .T. ) ;
#84 = ORIENTED_EDGE ( 'NONE', *, *, #73, .F. ) ;
#85 = CYLINDRICAL_SURFACE ( 'NONE', #170, 1.500000000000000000 ) ;
#86 = CARTESIAN_POINT ( 'NONE',  ( 0.0000000000000000000, 0.0000000000000000000, 0.0000000000000000000 ) ) ;
#87 = AXIS2_PLACEMENT_3D ( 'NONE', #18, #38, #80 ) ;
#88 = CARTESIAN_POINT ( 'NONE',  ( 1.047444401652940007E-14, 0.2299999999999993161, 3.000000000000000000 ) ) ;
#89 = CC_DESIGN_DATE_AND_TIME_ASSIGNMENT ( #2, #192, ( #11 ) ) ;
#90 = PERSON_AND_ORGANIZATION ( #225, #252 ) ;
#91 = FACE_OUTER_BOUND ( 'NONE', #167, .T. ) ;
#92 = CALENDAR_DATE ( 2021, 1, 12 ) ;
#93 = VERTEX_POINT ( 'NONE', #269 ) ;
#94 = DIRECTION ( 'NONE',  ( 1.000000000000000000, 0.0000000000000000000, 0.0000000000000000000 ) ) ;
#95 = COORDINATED_UNIVERSAL_TIME_OFFSET ( 1, 0, .AHEAD. ) ;
#96 = AXIS2_PLACEMENT_3D ( 'NONE', #232, #156, #138 ) ;
#97 = CIRCLE ( 'NONE', #202, 1.500000000000003331 ) ;
#98 = EDGE_CURVE ( 'NONE', #242, #242, #191, .T. ) ;
#99 = APPROVAL ( #199, 'UNSPECIFIED' ) ;
#100 = DIRECTION ( 'NONE',  ( 3.491481338843133355E-15, -1.224646799147353207E-16, 1.000000000000000000 ) ) ;
#101 = TOROIDAL_SURFACE ( 'NONE', #224, 2.229999999999999982, 2.000000000000000000 ) ;
#102 = ORIENTED_EDGE ( 'NONE', *, *, #60, .T. ) ;
#103 = DIRECTION ( 'NONE',  ( 0.0000000000000000000, -1.000000000000000000, 0.0000000000000000000 ) ) ;
#104 = DIRECTION ( 'NONE',  ( -3.491481338843133355E-15, 1.224646799147353207E-16, -1.000000000000000000 ) ) ;
#105 = FACE_OUTER_BOUND ( 'NONE', #27, .T. ) ;
#106 = DIRECTION ( 'NONE',  ( -4.275831445896958607E-31, -1.000000000000000000, -1.224646799147353207E-16 ) ) ;
#107 = CC_DESIGN_APPROVAL ( #240, ( #11 ) ) ;
#108 = CALENDAR_DATE ( 2021, 1, 12 ) ;
#109 =( GEOMETRIC_REPRESENTATION_CONTEXT ( 3 ) GLOBAL_UNCERTAINTY_ASSIGNED_CONTEXT ( ( #34 ) ) GLOBAL_UNIT_ASSIGNED_CONTEXT ( ( #247, #196, #245 ) ) REPRESENTATION_CONTEXT ( 'NONE', 'WORKASPACE' ) );
#110 = ORIENTED_EDGE ( 'NONE', *, *, #98, .F. ) ;
#111 = DATE_AND_TIME ( #181, #226 ) ;
#112 = EDGE_LOOP ( 'NONE', ( #4 ) ) ;
#113 = CARTESIAN_POINT ( 'NONE',  ( 0.0000000000000000000, 0.0000000000000000000, 0.0000000000000000000 ) ) ;
#114 = FACE_BOUND ( 'NONE', #257, .T. ) ;
#115 = PERSON_AND_ORGANIZATION ( #225, #252 ) ;
#116 = PERSON_AND_ORGANIZATION ( #225, #252 ) ;
#117 = CC_DESIGN_APPROVAL ( #99, ( #206 ) ) ;
#118 = CC_DESIGN_PERSON_AND_ORGANIZATION_ASSIGNMENT ( #115, #243, ( #270 ) ) ;
#119 = AXIS2_PLACEMENT_3D ( 'NONE', #211, #160, #253 ) ;
#120 = PLANE ( 'NONE',  #119 ) ;
#121 = PLANE ( 'NONE',  #150 ) ;
#122 = EDGE_LOOP ( 'NONE', ( #102 ) ) ;
#123 = CARTESIAN_POINT ( 'NONE',  ( 1.047444401652940007E-14, -3.673940397442059868E-16, 3.000000000000000000 ) ) ;
#124 = LOCAL_TIME ( 8, 27, 11.00000000000000000, #45 ) ;
#125 = CIRCLE ( 'NONE', #183, 0.1722649730810376367 ) ;
#126 = ORIENTED_EDGE ( 'NONE', *, *, #263, .T. ) ;
#127 = EDGE_LOOP ( 'NONE', ( #221 ) ) ;
#128 = DIRECTION ( 'NONE',  ( -3.491481338843133355E-15, 1.224646799147353207E-16, -1.000000000000000000 ) ) ;
#129 = DATE_AND_TIME ( #92, #124 ) ;
#130 = EDGE_CURVE ( 'NONE', #264, #264, #97, .T. ) ;
#131 = DIRECTION ( 'NONE',  ( 0.0000000000000000000, 1.000000000000000000, 0.0000000000000000000 ) ) ;
#132 = DIRECTION ( 'NONE',  ( 4.186804226928785208E-31, 1.000000000000000000, 1.178480622266855915E-16 ) ) ;
#133 = CONICAL_SURFACE ( 'NONE', #57, 1.200000000000003286, 0.7853981633974453924 ) ;
#134 = DIRECTION ( 'NONE',  ( -4.186804226928785208E-31, -1.000000000000000000, -1.178480622266855915E-16 ) ) ;
#135 = PERSON_AND_ORGANIZATION ( #225, #252 ) ;
#136 = ORIENTED_EDGE ( 'NONE', *, *, #83, .F. ) ;
#137 = CARTESIAN_POINT ( 'NONE',  ( 1.047444401652940007E-14, 0.2299999999999993161, 3.000000000000000000 ) ) ;
#138 = DIRECTION ( 'NONE',  ( -4.275831445896958607E-31, -1.000000000000000000, -1.224646799147353207E-16 ) ) ;
#139 = APPROVAL_ROLE ( '' ) ;
#140 = CIRCLE ( 'NONE', #81, 0.2299999999999999267 ) ;
#141 = DIRECTION ( 'NONE',  ( 4.275831445896958607E-31, 1.000000000000000000, 1.224646799147353207E-16 ) ) ;
#142 = CARTESIAN_POINT ( 'NONE',  ( 1.047444401652940007E-14, -3.673940397442059868E-16, 3.000000000000000000 ) ) ;
#143 = FACE_OUTER_BOUND ( 'NONE', #71, .T. ) ;
#144 = DIRECTION ( 'NONE',  ( 4.401388393430101356E-31, 1.000000000000000000, 1.224646799147353207E-16 ) ) ;
#145 = CARTESIAN_POINT ( 'NONE',  ( -7.365759889264937825E-32, 2.583560785882677870E-33, -2.109637478888976804E-17 ) ) ;
#146 = CC_DESIGN_PERSON_AND_ORGANIZATION_ASSIGNMENT ( #158, #68, ( #206 ) ) ;
#147 = VERTEX_POINT ( 'NONE', #179 ) ;
#148 = DATE_AND_TIME ( #271, #159 ) ;
#149 = DIRECTION ( 'NONE',  ( 0.0000000000000000000, 1.000000000000000000, 0.0000000000000000000 ) ) ;
#150 = AXIS2_PLACEMENT_3D ( 'NONE', #262, #164, #171 ) ;
#151 = EDGE_LOOP ( 'NONE', ( #110 ) ) ;
#152 = CARTESIAN_POINT ( 'NONE',  ( 3.491481338843134341E-16, 0.2299999999999993716, 0.1000000000000000194 ) ) ;
#153 = SHAPE_DEFINITION_REPRESENTATION ( #54, #246 ) ;
#154 = DIRECTION ( 'NONE',  ( -3.491481338843133355E-15, 1.224646799147353207E-16, -1.000000000000000000 ) ) ;
#155 = APPROVAL_STATUS ( 'not_yet_approved' ) ;
#156 = DIRECTION ( 'NONE',  ( 3.491481338843133355E-15, -1.224646799147353207E-16, 1.000000000000000000 ) ) ;
#157 = CIRCLE ( 'NONE', #76, 0.2603844939755811660 ) ;
#158 = PERSON_AND_ORGANIZATION ( #225, #252 ) ;
#159 = LOCAL_TIME ( 8, 27, 11.00000000000000000, #95 ) ;
#160 = DIRECTION ( 'NONE',  ( -3.491481338843133355E-15, 1.224646799147353207E-16, -1.000000000000000000 ) ) ;
#161 = AXIS2_PLACEMENT_3D ( 'NONE', #193, #47, #134 ) ;
#162 = AXIS2_PLACEMENT_3D ( 'NONE', #113, #9, #94 ) ;
#163 = EDGE_CURVE ( 'NONE', #66, #66, #140, .T. ) ;
#164 = DIRECTION ( 'NONE',  ( 3.491481338843133355E-15, -1.224646799147353207E-16, 1.000000000000000000 ) ) ;
#165 = ORIENTED_EDGE ( 'NONE', *, *, #83, .T. ) ;
#166 = CARTESIAN_POINT ( 'NONE',  ( 4.321582855979354351E-14, -1.515807217110540338E-15, 12.37750523796660751 ) ) ;
#167 = EDGE_LOOP ( 'NONE', ( #230 ) ) ;
#168 = DIRECTION ( 'NONE',  ( 4.275831445896957731E-31, 1.000000000000000000, 1.224646799147353207E-16 ) ) ;
#169 = ADVANCED_FACE ( 'NONE', ( #82 ), #121, .T. ) ;
#170 = AXIS2_PLACEMENT_3D ( 'NONE', #86, #61, #56 ) ;
#171 = DIRECTION ( 'NONE',  ( -4.275831445896958607E-31, -1.000000000000000000, -1.224646799147353207E-16 ) ) ;
#172 = APPLICATION_PROTOCOL_DEFINITION ( 'international standard', 'config_control_design', 1994, #238 ) ;
#173 = MANIFOLD_SOLID_BREP ( 'Corps-Déplacer/Copier1[2]', #198 ) ;
#174 = VERTEX_POINT ( 'NONE', #88 ) ;
#175 = FACE_OUTER_BOUND ( 'NONE', #212, .T. ) ;
#176 = VERTEX_POINT ( 'NONE', #152 ) ;
#177 = EDGE_LOOP ( 'NONE', ( #187 ) ) ;
#178 = DIRECTION ( 'NONE',  ( -3.491481338843133355E-15, 1.224646799147353207E-16, -1.000000000000000000 ) ) ;
#179 = CARTESIAN_POINT ( 'NONE',  ( 1.866998543791203065E-14, 0.2603844939755804999, 5.347296355333847728 ) ) ;
#180 = PRODUCT ( '200719', '200719', '', ( #49 ) ) ;
#181 = CALENDAR_DATE ( 2021, 1, 12 ) ;
#182 = LOCAL_TIME ( 8, 27, 11.00000000000000000, #223 ) ;
#183 = AXIS2_PLACEMENT_3D ( 'NONE', #145, #104, #188 ) ;
#184 = FACE_OUTER_BOUND ( 'NONE', #244, .T. ) ;
#185 = EDGE_LOOP ( 'NONE', ( #23 ) ) ;
#186 = CYLINDRICAL_SURFACE ( 'NONE', #249, 0.2299999999999998157 ) ;
#187 = ORIENTED_EDGE ( 'NONE', *, *, #275, .F. ) ;
#188 = DIRECTION ( 'NONE',  ( 4.275831445896958607E-31, 1.000000000000000000, 1.224646799147352961E-16 ) ) ;
#189 = DIRECTION ( 'NONE',  ( 0.0000000000000000000, 1.000000000000000000, 0.0000000000000000000 ) ) ;
#190 = CIRCLE ( 'NONE', #87, 1.499999999999996891 ) ;
#191 = CIRCLE ( 'NONE', #48, 0.2299999999999997047 ) ;
#192 = DATE_TIME_ROLE ( 'creation_date' ) ;
#193 = CARTESIAN_POINT ( 'NONE',  ( 3.491481338843133355E-16, -1.224646799147353115E-17, 0.09999999999999999167 ) ) ;
#194 = PERSON_AND_ORGANIZATION ( #225, #252 ) ;
#195 = EDGE_LOOP ( 'NONE', ( #84 ) ) ;
#196 =( NAMED_UNIT ( * ) PLANE_ANGLE_UNIT ( ) SI_UNIT ( $, .RADIAN. ) );
#197 = CARTESIAN_POINT ( 'NONE',  ( 3.491481338843133355E-16, -1.224646799147353115E-17, 0.09999999999999999167 ) ) ;
#198 = CLOSED_SHELL ( 'NONE', ( #14, #43, #51, #169 ) ) ;
#199 = APPROVAL_STATUS ( 'not_yet_approved' ) ;
#200 = CC_DESIGN_PERSON_AND_ORGANIZATION_ASSIGNMENT ( #116, #267, ( #270 ) ) ;
#201 = DATE_TIME_ROLE ( 'classification_date' ) ;
#202 = AXIS2_PLACEMENT_3D ( 'NONE', #282, #33, #279 ) ;
#203 = DIRECTION ( 'NONE',  ( -3.491481338843133355E-15, 1.224646799147353207E-16, -1.000000000000000000 ) ) ;
#204 = ADVANCED_FACE ( 'NONE', ( #62, #143 ), #273, .T. ) ;
#205 = DIRECTION ( 'NONE',  ( -3.491481338843133355E-15, 1.224646799147353207E-16, -1.000000000000000000 ) ) ;
#206 = SECURITY_CLASSIFICATION ( '', '', #64 ) ;
#207 = ORIENTED_EDGE ( 'NONE', *, *, #275, .T. ) ;
#208 = CARTESIAN_POINT ( 'NONE',  ( 1.745740669421566678E-14, -6.123233995736766282E-16, 5.000000000000000000 ) ) ;
#209 = AXIS2_PLACEMENT_3D ( 'NONE', #233, #281, #141 ) ;
#210 = ORIENTED_EDGE ( 'NONE', *, *, #60, .F. ) ;
#211 = CARTESIAN_POINT ( 'NONE',  ( 1.326762908760390423E-13, 8.998558695971103225E-33, 38.00000000000000000 ) ) ;
#212 = EDGE_LOOP ( 'NONE', ( #207 ) ) ;
#213 = FACE_OUTER_BOUND ( 'NONE', #151, .T. ) ;
#214 = CARTESIAN_POINT ( 'NONE',  ( 1.326762908760390423E-13, -4.653657836759941941E-15, 38.00000000000000000 ) ) ;
#215 = PERSON_AND_ORGANIZATION_ROLE ( 'creator' ) ;
#216 = LOCAL_TIME ( 8, 27, 11.00000000000000000, #22 ) ;
#217 = FACE_OUTER_BOUND ( 'NONE', #127, .T. ) ;
#218 = DIRECTION ( 'NONE',  ( -3.491481338843133355E-15, 1.224646799147353207E-16, -1.000000000000000000 ) ) ;
#219 = ADVANCED_FACE ( 'NONE', ( #17, #228 ), #133, .T. ) ;
#220 = VERTEX_POINT ( 'NONE', #24 ) ;
#221 = ORIENTED_EDGE ( 'NONE', *, *, #98, .T. ) ;
#222 = APPROVAL_DATE_TIME ( #148, #99 ) ;
#223 = COORDINATED_UNIVERSAL_TIME_OFFSET ( 1, 0, .AHEAD. ) ;
#224 = AXIS2_PLACEMENT_3D ( 'NONE', #77, #154, #144 ) ;
#225 = PERSON ( 'UNSPECIFIED', 'UNSPECIFIED', 'UNSPECIFIED', ('UNSPECIFIED'), ('UNSPECIFIED'), ('UNSPECIFIED') ) ;
#226 = LOCAL_TIME ( 8, 27, 11.00000000000000000, #265 ) ;
#227 = ADVANCED_FACE ( 'NONE', ( #41 ), #120, .F. ) ;
#228 = FACE_BOUND ( 'NONE', #185, .T. ) ;
#229 = DIRECTION ( 'NONE',  ( -3.491481338843133355E-15, 1.224646799147353207E-16, -1.000000000000000000 ) ) ;
#230 = ORIENTED_EDGE ( 'NONE', *, *, #163, .F. ) ;
#231 = FACE_OUTER_BOUND ( 'NONE', #44, .T. ) ;
#232 = CARTESIAN_POINT ( 'NONE',  ( 1.047444401652940007E-14, 1.724723750061128654E-33, 3.000000000000000000 ) ) ;
#233 = CARTESIAN_POINT ( 'NONE',  ( 0.0000000000000000000, 0.0000000000000000000, 0.0000000000000000000 ) ) ;
#234 = CIRCLE ( 'NONE', #266, 1.200000000000003286 ) ;
#235 = EDGE_LOOP ( 'NONE', ( #50 ) ) ;
#236 = CYLINDRICAL_SURFACE ( 'NONE', #209, 0.2299999999999995381 ) ;
#237 = CARTESIAN_POINT ( 'NONE',  ( -3.682879944632468912E-32, 1.291780392941338935E-33, -1.054818739444488402E-17 ) ) ;
#238 = APPLICATION_CONTEXT ( 'configuration controlled 3d designs of mechanical parts and assemblies' ) ;
#239 = APPLICATION_PROTOCOL_DEFINITION ( 'international standard', 'config_control_design', 1994, #8 ) ;
#240 = APPROVAL ( #3, 'UNSPECIFIED' ) ;
#241 = AXIS2_PLACEMENT_3D ( 'NONE', #166, #20, #103 ) ;
#242 = VERTEX_POINT ( 'NONE', #137 ) ;
#243 = PERSON_AND_ORGANIZATION_ROLE ( 'design_supplier' ) ;
#244 = EDGE_LOOP ( 'NONE', ( #259 ) ) ;
#245 =( NAMED_UNIT ( * ) SI_UNIT ( $, .STERADIAN. ) SOLID_ANGLE_UNIT ( ) );
#246 = ADVANCED_BREP_SHAPE_REPRESENTATION ( '200719', ( #274, #173, #162 ), #109 ) ;
#247 =( LENGTH_UNIT ( ) NAMED_UNIT ( * ) SI_UNIT ( .MILLI., .METRE. ) );
#248 = DATE_AND_TIME ( #74, #182 ) ;
#249 = AXIS2_PLACEMENT_3D ( 'NONE', #58, #256, #168 ) ;
#250 = FACE_OUTER_BOUND ( 'NONE', #268, .T. ) ;
#251 = CC_DESIGN_PERSON_AND_ORGANIZATION_ASSIGNMENT ( #90, #215, ( #11 ) ) ;
#252 = ORGANIZATION ( 'UNSPECIFIED', 'UNSPECIFIED', '' ) ;
#253 = DIRECTION ( 'NONE',  ( 4.275831445896958607E-31, 1.000000000000000000, 1.224646799147353207E-16 ) ) ;
#254 = CONICAL_SURFACE ( 'NONE', #161, 0.2299999999999993716, 0.5235987755982925984 ) ;
#255 = ORIENTED_EDGE ( 'NONE', *, *, #21, .F. ) ;
#256 = DIRECTION ( 'NONE',  ( -3.491481338843133355E-15, 1.224646799147353207E-16, -1.000000000000000000 ) ) ;
#257 = EDGE_LOOP ( 'NONE', ( #210 ) ) ;
#258 = CARTESIAN_POINT ( 'NONE',  ( 1.326762908760390423E-13, -4.653657836759941941E-15, 38.00000000000000000 ) ) ;
#259 = ORIENTED_EDGE ( 'NONE', *, *, #130, .T. ) ;
#260 = FACE_OUTER_BOUND ( 'NONE', #235, .T. ) ;
#261 = PLANE ( 'NONE',  #28 ) ;
#262 = CARTESIAN_POINT ( 'NONE',  ( 1.047444401652940007E-14, 1.724723750061128654E-33, 3.000000000000000000 ) ) ;
#263 = EDGE_CURVE ( 'NONE', #176, #176, #278, .T. ) ;
#264 = VERTEX_POINT ( 'NONE', #25 ) ;
#265 = COORDINATED_UNIVERSAL_TIME_OFFSET ( 1, 0, .AHEAD. ) ;
#266 = AXIS2_PLACEMENT_3D ( 'NONE', #214, #283, #131 ) ;
#267 = PERSON_AND_ORGANIZATION_ROLE ( 'creator' ) ;
#268 = EDGE_LOOP ( 'NONE', ( #126 ) ) ;
#269 = CARTESIAN_POINT ( 'NONE',  ( 0.0000000000000000000, 0.1722649730810376367, 0.0000000000000000000 ) ) ;
#270 = PRODUCT_DEFINITION_FORMATION_WITH_SPECIFIED_SOURCE ( 'ANY', '', #180, .NOT_KNOWN. ) ;
#271 = CALENDAR_DATE ( 2021, 1, 12 ) ;
#272 = FACE_OUTER_BOUND ( 'NONE', #122, .T. ) ;
#273 = CONICAL_SURFACE ( 'NONE', #241, 1.499999999999996891, 0.1745329251994260922 ) ;
#274 = MANIFOLD_SOLID_BREP ( 'Corps-Déplacer/Copier1[1]', #42 ) ;
#275 = EDGE_CURVE ( 'NONE', #147, #147, #157, .T. ) ;
#276 = DESIGN_CONTEXT ( 'detailed design', #8, 'design' ) ;
#277 = PLANE ( 'NONE',  #96 ) ;
#278 = CIRCLE ( 'NONE', #12, 0.2299999999999993716 ) ;
#279 = DIRECTION ( 'NONE',  ( 0.0000000000000000000, 1.000000000000000000, 0.0000000000000000000 ) ) ;
#280 = ORIENTED_EDGE ( 'NONE', *, *, #263, .F. ) ;
#281 = DIRECTION ( 'NONE',  ( -3.491481338843133355E-15, 1.224646799147353207E-16, -1.000000000000000000 ) ) ;
#282 = CARTESIAN_POINT ( 'NONE',  ( 1.316288464743861212E-13, -4.616918432785521081E-15, 37.69999999999999574 ) ) ;
#283 = DIRECTION ( 'NONE',  ( -3.491481338843133355E-15, 1.224646799147353207E-16, -1.000000000000000000 ) ) ;
ENDSEC;
END-ISO-10303-21;
