ISO-10303-21;
HEADER;
FILE_DESCRIPTION (( 'STEP AP203' ),
    '1' );
FILE_NAME ('200718.step',
    '2021-12-01T07:27:10',
    ( '' ),
    ( '' ),
    'SwSTEP 2.0',
    'SolidWorks 2019',
    '' );
FILE_SCHEMA (( 'CONFIG_CONTROL_DESIGN' ));
ENDSEC;

DATA;
#1 = ADVANCED_FACE ( 'NONE', ( #250, #12 ), #126, .T. ) ;
#2 = FACE_BOUND ( 'NONE', #28, .T. ) ;
#3 = CARTESIAN_POINT ( 'NONE',  ( 1.326762908760390423E-13, 8.998558695971103225E-33, 38.00000000000000000 ) ) ;
#4 = VERTEX_POINT ( 'NONE', #105 ) ;
#5 = ORIENTED_EDGE ( 'NONE', *, *, #20, .T. ) ;
#6 = DIRECTION ( 'NONE',  ( -3.491481338843133355E-15, 1.224646799147353207E-16, -1.000000000000000000 ) ) ;
#7 = AXIS2_PLACEMENT_3D ( 'NONE', #3, #182, #9 ) ;
#8 =( GEOMETRIC_REPRESENTATION_CONTEXT ( 3 ) GLOBAL_UNCERTAINTY_ASSIGNED_CONTEXT ( ( #64 ) ) GLOBAL_UNIT_ASSIGNED_CONTEXT ( ( #142, #264, #240 ) ) REPRESENTATION_CONTEXT ( 'NONE', 'WORKASPACE' ) );
#9 = DIRECTION ( 'NONE',  ( 4.275831445896958607E-31, 1.000000000000000000, 1.224646799147353207E-16 ) ) ;
#10 = DIRECTION ( 'NONE',  ( 4.377113509971002438E-31, 1.000000000000000000, 1.232047923278985651E-16 ) ) ;
#11 = DATE_TIME_ROLE ( 'creation_date' ) ;
#12 = FACE_OUTER_BOUND ( 'NONE', #80, .T. ) ;
#13 = DIRECTION ( 'NONE',  ( -3.491481338843133355E-15, 1.224646799147353207E-16, -1.000000000000000000 ) ) ;
#14 = VERTEX_POINT ( 'NONE', #84 ) ;
#15 = APPROVAL ( #91, 'UNSPECIFIED' ) ;
#16 = PERSON_AND_ORGANIZATION_ROLE ( 'creator' ) ;
#17 = APPROVAL_PERSON_ORGANIZATION ( #277, #15, #172 ) ;
#18 = PERSON_AND_ORGANIZATION_ROLE ( 'design_supplier' ) ;
#19 = PERSON_AND_ORGANIZATION ( #42, #270 ) ;
#20 = EDGE_CURVE ( 'NONE', #4, #4, #221, .T. ) ;
#21 = APPROVAL_STATUS ( 'not_yet_approved' ) ;
#22 = LOCAL_TIME ( 8, 27, 10.00000000000000000, #153 ) ;
#23 = DATE_TIME_ROLE ( 'classification_date' ) ;
#24 = EDGE_LOOP ( 'NONE', ( #50 ) ) ;
#25 = AXIS2_PLACEMENT_3D ( 'NONE', #151, #6, #10 ) ;
#26 = APPLICATION_CONTEXT ( 'configuration controlled 3d designs of mechanical parts and assemblies' ) ;
#27 = ADVANCED_FACE ( 'NONE', ( #275 ), #83, .T. ) ;
#28 = EDGE_LOOP ( 'NONE', ( #200 ) ) ;
#29 = APPROVAL_PERSON_ORGANIZATION ( #216, #263, #281 ) ;
#30 = CARTESIAN_POINT ( 'NONE',  ( 0.0000000000000000000, 0.0000000000000000000, 0.0000000000000000000 ) ) ;
#31 = FACE_BOUND ( 'NONE', #219, .T. ) ;
#32 = FACE_OUTER_BOUND ( 'NONE', #183, .T. ) ;
#33 = CARTESIAN_POINT ( 'NONE',  ( 1.047444401652940007E-14, 1.649735760928035568E-33, 3.000000000000000000 ) ) ;
#34 = CARTESIAN_POINT ( 'NONE',  ( -6.938176744675243541E-32, 2.433584807616492383E-33, -1.987172798974242063E-17 ) ) ;
#35 = DIRECTION ( 'NONE',  ( -3.491481338843133355E-15, 1.224646799147353207E-16, -1.000000000000000000 ) ) ;
#36 = DIRECTION ( 'NONE',  ( -3.491481338843133355E-15, 1.224646799147353207E-16, -1.000000000000000000 ) ) ;
#37 = APPROVAL ( #234, 'UNSPECIFIED' ) ;
#38 = DIRECTION ( 'NONE',  ( 0.0000000000000000000, 1.000000000000000000, 0.0000000000000000000 ) ) ;
#39 = PERSON_AND_ORGANIZATION ( #42, #270 ) ;
#40 = APPLICATION_CONTEXT ( 'configuration controlled 3d designs of mechanical parts and assemblies' ) ;
#41 = CARTESIAN_POINT ( 'NONE',  ( 0.0000000000000000000, 0.0000000000000000000, 0.0000000000000000000 ) ) ;
#42 = PERSON ( 'UNSPECIFIED', 'UNSPECIFIED', 'UNSPECIFIED', ('UNSPECIFIED'), ('UNSPECIFIED'), ('UNSPECIFIED') ) ;
#43 = AXIS2_PLACEMENT_3D ( 'NONE', #101, #13, #38 ) ;
#44 = ORIENTED_EDGE ( 'NONE', *, *, #279, .T. ) ;
#45 = CC_DESIGN_PERSON_AND_ORGANIZATION_ASSIGNMENT ( #214, #18, ( #278 ) ) ;
#46 = EDGE_LOOP ( 'NONE', ( #198 ) ) ;
#47 = SHAPE_DEFINITION_REPRESENTATION ( #121, #102 ) ;
#48 = CC_DESIGN_APPROVAL ( #263, ( #97 ) ) ;
#49 = ADVANCED_FACE ( 'NONE', ( #225, #32 ), #140, .T. ) ;
#50 = ORIENTED_EDGE ( 'NONE', *, *, #87, .F. ) ;
#51 = DIRECTION ( 'NONE',  ( -4.275831445896958607E-31, -1.000000000000000000, -1.224646799147353207E-16 ) ) ;
#52 = CARTESIAN_POINT ( 'NONE',  ( 1.745740669421566678E-14, 0.2199999999999992795, 5.000000000000000000 ) ) ;
#53 = EDGE_LOOP ( 'NONE', ( #73 ) ) ;
#54 = DIRECTION ( 'NONE',  ( -3.491481338843133355E-15, 1.224646799147353207E-16, -1.000000000000000000 ) ) ;
#55 = DIRECTION ( 'NONE',  ( -4.275831445896958607E-31, -1.000000000000000000, -1.224646799147353207E-16 ) ) ;
#56 = DIRECTION ( 'NONE',  ( 3.491481338843133355E-15, -1.224646799147353207E-16, 1.000000000000000000 ) ) ;
#57 = DIRECTION ( 'NONE',  ( 3.491481338843133355E-15, -1.224646799147353207E-16, 1.000000000000000000 ) ) ;
#58 = CARTESIAN_POINT ( 'NONE',  ( 1.326762908760390423E-13, -4.653657836759941941E-15, 38.00000000000000000 ) ) ;
#59 = ADVANCED_FACE ( 'NONE', ( #220 ), #271, .F. ) ;
#60 = CARTESIAN_POINT ( 'NONE',  ( 1.316288464743861212E-13, -4.616918432785521081E-15, 37.69999999999999574 ) ) ;
#61 = ADVANCED_FACE ( 'NONE', ( #2, #123 ), #96, .T. ) ;
#62 = PLANE ( 'NONE',  #148 ) ;
#63 = PERSON_AND_ORGANIZATION ( #42, #270 ) ;
#64 = UNCERTAINTY_MEASURE_WITH_UNIT (LENGTH_MEASURE( 1.000000000000000082E-05 ), #142, 'distance_accuracy_value', 'NONE');
#65 = CALENDAR_DATE ( 2021, 1, 12 ) ;
#66 = DATE_AND_TIME ( #88, #130 ) ;
#67 = CIRCLE ( 'NONE', #249, 0.2503844939755814347 ) ;
#68 = DIRECTION ( 'NONE',  ( 0.0000000000000000000, 0.0000000000000000000, 1.000000000000000000 ) ) ;
#69 = MANIFOLD_SOLID_BREP ( 'Corps-Déplacer/Copier1[2]', #195 ) ;
#70 = AXIS2_PLACEMENT_3D ( 'NONE', #145, #103, #77 ) ;
#71 = CC_DESIGN_SECURITY_CLASSIFICATION ( #97, ( #278 ) ) ;
#72 = CC_DESIGN_DATE_AND_TIME_ASSIGNMENT ( #66, #11, ( #93 ) ) ;
#73 = ORIENTED_EDGE ( 'NONE', *, *, #94, .F. ) ;
#74 = EDGE_LOOP ( 'NONE', ( #206 ) ) ;
#75 = ADVANCED_FACE ( 'NONE', ( #85 ), #118, .F. ) ;
#76 = CONICAL_SURFACE ( 'NONE', #112, 0.2199999999999993905, 0.5235987755982923764 ) ;
#77 = DIRECTION ( 'NONE',  ( 4.275831445896958607E-31, 1.000000000000000000, 1.224646799147353207E-16 ) ) ;
#78 = PRODUCT ( '200718', '200718', '', ( #209 ) ) ;
#79 = DIRECTION ( 'NONE',  ( -3.491481338843133355E-15, 1.224646799147353207E-16, -1.000000000000000000 ) ) ;
#80 = EDGE_LOOP ( 'NONE', ( #273 ) ) ;
#81 = ADVANCED_FACE ( 'NONE', ( #187, #167 ), #76, .T. ) ;
#82 = CARTESIAN_POINT ( 'NONE',  ( 1.047444401652940007E-14, -3.673940397442059868E-16, 3.000000000000000000 ) ) ;
#83 = PLANE ( 'NONE',  #136 ) ;
#84 = CARTESIAN_POINT ( 'NONE',  ( 4.341384030619870587E-14, 1.499999999999995559, 12.43421805616278597 ) ) ;
#85 = FACE_OUTER_BOUND ( 'NONE', #218, .T. ) ;
#86 = CARTESIAN_POINT ( 'NONE',  ( 0.0000000000000000000, 0.0000000000000000000, 0.0000000000000000000 ) ) ;
#87 = EDGE_CURVE ( 'NONE', #188, #188, #283, .T. ) ;
#88 = CALENDAR_DATE ( 2021, 1, 12 ) ;
#89 = DIRECTION ( 'NONE',  ( -3.491481338843133355E-15, 1.224646799147353207E-16, -1.000000000000000000 ) ) ;
#90 = CIRCLE ( 'NONE', #124, 1.499999999999996891 ) ;
#91 = APPROVAL_STATUS ( 'not_yet_approved' ) ;
#92 = DIRECTION ( 'NONE',  ( 1.000000000000000000, 0.0000000000000000000, 0.0000000000000000000 ) ) ;
#93 = PRODUCT_DEFINITION ( 'UNKNOWN', '', #278, #156 ) ;
#94 = EDGE_CURVE ( 'NONE', #199, #199, #236, .T. ) ;
#95 = ADVANCED_FACE ( 'NONE', ( #274 ), #62, .F. ) ;
#96 = CONICAL_SURFACE ( 'NONE', #110, 1.499999999999996891, 0.1745329251994260367 ) ;
#97 = SECURITY_CLASSIFICATION ( '', '', #154 ) ;
#98 = DIRECTION ( 'NONE',  ( 0.0000000000000000000, -1.000000000000000000, 0.0000000000000000000 ) ) ;
#99 = EDGE_CURVE ( 'NONE', #186, #186, #258, .T. ) ;
#100 = EDGE_LOOP ( 'NONE', ( #44 ) ) ;
#101 = CARTESIAN_POINT ( 'NONE',  ( 1.745740669421566678E-14, -6.123233995736766282E-16, 5.000000000000000000 ) ) ;
#102 = ADVANCED_BREP_SHAPE_REPRESENTATION ( '200718', ( #160, #69, #104 ), #8 ) ;
#103 = DIRECTION ( 'NONE',  ( -3.491481338843133355E-15, 1.224646799147353207E-16, -1.000000000000000000 ) ) ;
#104 = AXIS2_PLACEMENT_3D ( 'NONE', #41, #68, #92 ) ;
#105 = CARTESIAN_POINT ( 'NONE',  ( 0.0000000000000000000, 0.1622649730810376556, 0.0000000000000000000 ) ) ;
#106 = ORIENTED_EDGE ( 'NONE', *, *, #223, .T. ) ;
#107 = DIRECTION ( 'NONE',  ( 0.0000000000000000000, 1.000000000000000000, 0.0000000000000000000 ) ) ;
#108 = PERSON_AND_ORGANIZATION_ROLE ( 'design_owner' ) ;
#109 = CARTESIAN_POINT ( 'NONE',  ( 1.866998543791203065E-14, 0.2503844939755808241, 5.347296355333847728 ) ) ;
#110 = AXIS2_PLACEMENT_3D ( 'NONE', #202, #267, #98 ) ;
#111 = APPLICATION_PROTOCOL_DEFINITION ( 'international standard', 'config_control_design', 1994, #40 ) ;
#112 = AXIS2_PLACEMENT_3D ( 'NONE', #253, #57, #232 ) ;
#113 = EDGE_CURVE ( 'NONE', #272, #272, #141, .T. ) ;
#114 = AXIS2_PLACEMENT_3D ( 'NONE', #86, #79, #233 ) ;
#115 = CALENDAR_DATE ( 2021, 1, 12 ) ;
#116 = ORIENTED_EDGE ( 'NONE', *, *, #138, .T. ) ;
#117 = AXIS2_PLACEMENT_3D ( 'NONE', #82, #224, #107 ) ;
#118 = PLANE ( 'NONE',  #7 ) ;
#119 = DIRECTION ( 'NONE',  ( 0.0000000000000000000, 1.000000000000000000, 0.0000000000000000000 ) ) ;
#120 = ORIENTED_EDGE ( 'NONE', *, *, #180, .T. ) ;
#121 = PRODUCT_DEFINITION_SHAPE ( 'NONE', 'NONE',  #93 ) ;
#122 = DIRECTION ( 'NONE',  ( -3.491481338843133355E-15, 1.224646799147353207E-16, -1.000000000000000000 ) ) ;
#123 = FACE_OUTER_BOUND ( 'NONE', #147, .T. ) ;
#124 = AXIS2_PLACEMENT_3D ( 'NONE', #193, #35, #146 ) ;
#125 = CARTESIAN_POINT ( 'NONE',  ( 3.491481338843134341E-16, 0.2199999999999993905, 0.1000000000000000194 ) ) ;
#126 = CYLINDRICAL_SURFACE ( 'NONE', #70, 0.2199999999999995570 ) ;
#127 = DIRECTION ( 'NONE',  ( 0.0000000000000000000, 1.000000000000000000, 0.0000000000000000000 ) ) ;
#128 = CARTESIAN_POINT ( 'NONE',  ( 1.047444401652940007E-14, 0.2199999999999993350, 3.000000000000000000 ) ) ;
#129 = APPROVAL_ROLE ( '' ) ;
#130 = LOCAL_TIME ( 8, 27, 10.00000000000000000, #173 ) ;
#131 = CC_DESIGN_DATE_AND_TIME_ASSIGNMENT ( #133, #23, ( #97 ) ) ;
#132 = PERSON_AND_ORGANIZATION_ROLE ( 'creator' ) ;
#133 = DATE_AND_TIME ( #115, #176 ) ;
#134 = AXIS2_PLACEMENT_3D ( 'NONE', #257, #89, #169 ) ;
#135 = EDGE_LOOP ( 'NONE', ( #137 ) ) ;
#136 = AXIS2_PLACEMENT_3D ( 'NONE', #227, #222, #51 ) ;
#137 = ORIENTED_EDGE ( 'NONE', *, *, #279, .F. ) ;
#138 = EDGE_CURVE ( 'NONE', #14, #14, #90, .T. ) ;
#139 = ADVANCED_FACE ( 'NONE', ( #171, #228 ), #251, .T. ) ;
#140 = CYLINDRICAL_SURFACE ( 'NONE', #256, 1.500000000000000000 ) ;
#141 = CIRCLE ( 'NONE', #117, 0.2199999999999996958 ) ;
#142 =( LENGTH_UNIT ( ) NAMED_UNIT ( * ) SI_UNIT ( .MILLI., .METRE. ) );
#143 = ORIENTED_EDGE ( 'NONE', *, *, #113, .F. ) ;
#144 = DIRECTION ( 'NONE',  ( -3.491481338843133355E-15, 1.224646799147353207E-16, -1.000000000000000000 ) ) ;
#145 = CARTESIAN_POINT ( 'NONE',  ( 0.0000000000000000000, 0.0000000000000000000, 0.0000000000000000000 ) ) ;
#146 = DIRECTION ( 'NONE',  ( 0.0000000000000000000, 1.000000000000000000, 0.0000000000000000000 ) ) ;
#147 = EDGE_LOOP ( 'NONE', ( #116 ) ) ;
#148 = AXIS2_PLACEMENT_3D ( 'NONE', #33, #56, #204 ) ;
#149 = VERTEX_POINT ( 'NONE', #166 ) ;
#150 = DIRECTION ( 'NONE',  ( -3.491481338843133355E-15, 1.224646799147353207E-16, -1.000000000000000000 ) ) ;
#151 = CARTESIAN_POINT ( 'NONE',  ( 3.491481338843133355E-16, -1.224646799147353115E-17, 0.09999999999999999167 ) ) ;
#152 = PERSON_AND_ORGANIZATION ( #42, #270 ) ;
#153 = COORDINATED_UNIVERSAL_TIME_OFFSET ( 1, 0, .AHEAD. ) ;
#154 = SECURITY_CLASSIFICATION_LEVEL ( 'unclassified' ) ;
#155 = ORIENTED_EDGE ( 'NONE', *, *, #94, .T. ) ;
#156 = DESIGN_CONTEXT ( 'detailed design', #40, 'design' ) ;
#157 = ORIENTED_EDGE ( 'NONE', *, *, #20, .F. ) ;
#158 = ORIENTED_EDGE ( 'NONE', *, *, #180, .F. ) ;
#159 = DIRECTION ( 'NONE',  ( 4.275831445896958607E-31, 1.000000000000000000, 1.224646799147353207E-16 ) ) ;
#160 = MANIFOLD_SOLID_BREP ( 'Corps-Déplacer/Copier1[1]', #192 ) ;
#161 = FACE_OUTER_BOUND ( 'NONE', #135, .T. ) ;
#162 = EDGE_LOOP ( 'NONE', ( #106 ) ) ;
#163 = AXIS2_PLACEMENT_3D ( 'NONE', #58, #144, #164 ) ;
#164 = DIRECTION ( 'NONE',  ( 0.0000000000000000000, 1.000000000000000000, 0.0000000000000000000 ) ) ;
#165 = DIRECTION ( 'NONE',  ( 3.491481338843133355E-15, -1.224646799147353207E-16, 1.000000000000000000 ) ) ;
#166 = CARTESIAN_POINT ( 'NONE',  ( 1.326762908760390423E-13, 1.199999999999998845, 38.00000000000000000 ) ) ;
#167 = FACE_OUTER_BOUND ( 'NONE', #46, .T. ) ;
#168 = DIRECTION ( 'NONE',  ( -3.491481338843133355E-15, 1.224646799147353207E-16, -1.000000000000000000 ) ) ;
#169 = DIRECTION ( 'NONE',  ( 0.0000000000000000000, 1.000000000000000000, 0.0000000000000000000 ) ) ;
#170 = CIRCLE ( 'NONE', #43, 0.2199999999999998901 ) ;
#171 = FACE_OUTER_BOUND ( 'NONE', #24, .T. ) ;
#172 = APPROVAL_ROLE ( '' ) ;
#173 = COORDINATED_UNIVERSAL_TIME_OFFSET ( 1, 0, .AHEAD. ) ;
#174 = LOCAL_TIME ( 8, 27, 10.00000000000000000, #260 ) ;
#175 = CALENDAR_DATE ( 2021, 1, 12 ) ;
#176 = LOCAL_TIME ( 8, 27, 10.00000000000000000, #243 ) ;
#177 = CC_DESIGN_PERSON_AND_ORGANIZATION_ASSIGNMENT ( #237, #262, ( #97 ) ) ;
#178 = EDGE_LOOP ( 'NONE', ( #143 ) ) ;
#179 = DATE_AND_TIME ( #175, #196 ) ;
#180 = EDGE_CURVE ( 'NONE', #149, #149, #244, .T. ) ;
#181 = CC_DESIGN_APPROVAL ( #37, ( #93 ) ) ;
#182 = DIRECTION ( 'NONE',  ( -3.491481338843133355E-15, 1.224646799147353207E-16, -1.000000000000000000 ) ) ;
#183 = EDGE_LOOP ( 'NONE', ( #155 ) ) ;
#184 = FACE_OUTER_BOUND ( 'NONE', #53, .T. ) ;
#185 = DIRECTION ( 'NONE',  ( 4.275831445896959482E-31, 1.000000000000000000, 1.224646799147353207E-16 ) ) ;
#186 = VERTEX_POINT ( 'NONE', #125 ) ;
#187 = FACE_BOUND ( 'NONE', #245, .T. ) ;
#188 = VERTEX_POINT ( 'NONE', #128 ) ;
#189 = DIRECTION ( 'NONE',  ( -3.491481338843133355E-15, 1.224646799147353207E-16, -1.000000000000000000 ) ) ;
#190 = CARTESIAN_POINT ( 'NONE',  ( 1.326762908760390423E-13, -4.653657836759941941E-15, 38.00000000000000000 ) ) ;
#191 = ADVANCED_FACE ( 'NONE', ( #184, #31 ), #261, .T. ) ;
#192 = CLOSED_SHELL ( 'NONE', ( #95, #139, #266, #61, #49, #191, #75 ) ) ;
#193 = CARTESIAN_POINT ( 'NONE',  ( 4.341384030619870587E-14, -1.522752534237998113E-15, 12.43421805616278597 ) ) ;
#194 = APPROVAL_DATE_TIME ( #235, #15 ) ;
#195 = CLOSED_SHELL ( 'NONE', ( #59, #81, #1, #27 ) ) ;
#196 = LOCAL_TIME ( 8, 27, 10.00000000000000000, #242 ) ;
#197 = CARTESIAN_POINT ( 'NONE',  ( -3.469088372337621770E-32, 1.216792403808246191E-33, -9.935863994871210313E-18 ) ) ;
#198 = ORIENTED_EDGE ( 'NONE', *, *, #99, .T. ) ;
#199 = VERTEX_POINT ( 'NONE', #226 ) ;
#200 = ORIENTED_EDGE ( 'NONE', *, *, #223, .F. ) ;
#201 = FACE_OUTER_BOUND ( 'NONE', #162, .T. ) ;
#202 = CARTESIAN_POINT ( 'NONE',  ( 4.341384030619870587E-14, -1.522752534237998113E-15, 12.43421805616278597 ) ) ;
#203 = AXIS2_PLACEMENT_3D ( 'NONE', #60, #150, #269 ) ;
#204 = DIRECTION ( 'NONE',  ( -4.275831445896958607E-31, -1.000000000000000000, -1.224646799147353207E-16 ) ) ;
#205 = CALENDAR_DATE ( 2021, 1, 12 ) ;
#206 = ORIENTED_EDGE ( 'NONE', *, *, #138, .F. ) ;
#207 = CARTESIAN_POINT ( 'NONE',  ( 1.745740669421566678E-14, -4.336808689942017736E-16, 5.000000000000000000 ) ) ;
#208 = PRODUCT_RELATED_PRODUCT_CATEGORY ( 'detail', '', ( #78 ) ) ;
#209 = MECHANICAL_CONTEXT ( 'NONE', #26, 'mechanical' ) ;
#210 = CARTESIAN_POINT ( 'NONE',  ( 1.047444401652940007E-14, 0.2199999999999993350, 3.000000000000000000 ) ) ;
#211 = DATE_AND_TIME ( #205, #22 ) ;
#212 = AXIS2_PLACEMENT_3D ( 'NONE', #197, #165, #55 ) ;
#213 = TOROIDAL_SURFACE ( 'NONE', #265, 2.219999999999999751, 2.000000000000000000 ) ;
#214 = PERSON_AND_ORGANIZATION ( #42, #270 ) ;
#215 = APPROVAL_DATE_TIME ( #211, #37 ) ;
#216 = PERSON_AND_ORGANIZATION ( #42, #270 ) ;
#217 = CC_DESIGN_PERSON_AND_ORGANIZATION_ASSIGNMENT ( #19, #16, ( #93 ) ) ;
#218 = EDGE_LOOP ( 'NONE', ( #158 ) ) ;
#219 = EDGE_LOOP ( 'NONE', ( #120 ) ) ;
#220 = FACE_OUTER_BOUND ( 'NONE', #252, .T. ) ;
#221 = CIRCLE ( 'NONE', #255, 0.1622649730810376556 ) ;
#222 = DIRECTION ( 'NONE',  ( 3.491481338843133355E-15, -1.224646799147353207E-16, 1.000000000000000000 ) ) ;
#223 = EDGE_CURVE ( 'NONE', #231, #231, #67, .T. ) ;
#224 = DIRECTION ( 'NONE',  ( -3.491481338843133355E-15, 1.224646799147353207E-16, -1.000000000000000000 ) ) ;
#225 = FACE_OUTER_BOUND ( 'NONE', #74, .T. ) ;
#226 = CARTESIAN_POINT ( 'NONE',  ( 1.316288464743861212E-13, 1.499999999999998668, 37.69999999999999574 ) ) ;
#227 = CARTESIAN_POINT ( 'NONE',  ( 1.047444401652940007E-14, 1.649735760928035568E-33, 3.000000000000000000 ) ) ;
#228 = FACE_OUTER_BOUND ( 'NONE', #100, .T. ) ;
#229 = ORIENTED_EDGE ( 'NONE', *, *, #99, .F. ) ;
#230 = APPROVAL_PERSON_ORGANIZATION ( #152, #37, #129 ) ;
#231 = VERTEX_POINT ( 'NONE', #109 ) ;
#232 = DIRECTION ( 'NONE',  ( -4.377113509971002438E-31, -1.000000000000000000, -1.232047923278985651E-16 ) ) ;
#233 = DIRECTION ( 'NONE',  ( 4.275831445896958607E-31, 1.000000000000000000, 1.224646799147353454E-16 ) ) ;
#234 = APPROVAL_STATUS ( 'not_yet_approved' ) ;
#235 = DATE_AND_TIME ( #65, #174 ) ;
#236 = CIRCLE ( 'NONE', #203, 1.500000000000003331 ) ;
#237 = PERSON_AND_ORGANIZATION ( #42, #270 ) ;
#238 = APPROVAL_DATE_TIME ( #179, #263 ) ;
#239 = CC_DESIGN_PERSON_AND_ORGANIZATION_ASSIGNMENT ( #63, #108, ( #78 ) ) ;
#240 =( NAMED_UNIT ( * ) SI_UNIT ( $, .STERADIAN. ) SOLID_ANGLE_UNIT ( ) );
#241 = EDGE_LOOP ( 'NONE', ( #229 ) ) ;
#242 = COORDINATED_UNIVERSAL_TIME_OFFSET ( 1, 0, .AHEAD. ) ;
#243 = COORDINATED_UNIVERSAL_TIME_OFFSET ( 1, 0, .AHEAD. ) ;
#244 = CIRCLE ( 'NONE', #282, 1.200000000000003286 ) ;
#245 = EDGE_LOOP ( 'NONE', ( #157 ) ) ;
#246 = ORIENTED_EDGE ( 'NONE', *, *, #87, .T. ) ;
#247 = CC_DESIGN_PERSON_AND_ORGANIZATION_ASSIGNMENT ( #39, #132, ( #278 ) ) ;
#248 = VERTEX_POINT ( 'NONE', #52 ) ;
#249 = AXIS2_PLACEMENT_3D ( 'NONE', #254, #122, #127 ) ;
#250 = FACE_OUTER_BOUND ( 'NONE', #241, .T. ) ;
#251 = CYLINDRICAL_SURFACE ( 'NONE', #114, 0.2199999999999998068 ) ;
#252 = EDGE_LOOP ( 'NONE', ( #5 ) ) ;
#253 = CARTESIAN_POINT ( 'NONE',  ( 3.491481338843133355E-16, -1.224646799147353115E-17, 0.09999999999999999167 ) ) ;
#254 = CARTESIAN_POINT ( 'NONE',  ( 1.866998543791203065E-14, -6.548549365651905381E-16, 5.347296355333847728 ) ) ;
#255 = AXIS2_PLACEMENT_3D ( 'NONE', #34, #189, #159 ) ;
#256 = AXIS2_PLACEMENT_3D ( 'NONE', #30, #36, #185 ) ;
#257 = CARTESIAN_POINT ( 'NONE',  ( 1.047444401652940007E-14, -3.673940397442059868E-16, 3.000000000000000000 ) ) ;
#258 = CIRCLE ( 'NONE', #25, 0.2199999999999993905 ) ;
#259 = DIRECTION ( 'NONE',  ( 4.401685921741791004E-31, 1.000000000000000000, 1.224646799147353207E-16 ) ) ;
#260 = COORDINATED_UNIVERSAL_TIME_OFFSET ( 1, 0, .AHEAD. ) ;
#261 = CONICAL_SURFACE ( 'NONE', #163, 1.200000000000003286, 0.7853981633974453924 ) ;
#262 = PERSON_AND_ORGANIZATION_ROLE ( 'classification_officer' ) ;
#263 = APPROVAL ( #21, 'UNSPECIFIED' ) ;
#264 =( NAMED_UNIT ( * ) PLANE_ANGLE_UNIT ( ) SI_UNIT ( $, .RADIAN. ) );
#265 = AXIS2_PLACEMENT_3D ( 'NONE', #207, #54, #259 ) ;
#266 = ADVANCED_FACE ( 'NONE', ( #161, #201 ), #213, .F. ) ;
#267 = DIRECTION ( 'NONE',  ( 3.491481338843133355E-15, -1.224646799147353207E-16, 1.000000000000000000 ) ) ;
#268 = EDGE_LOOP ( 'NONE', ( #246 ) ) ;
#269 = DIRECTION ( 'NONE',  ( 0.0000000000000000000, 1.000000000000000000, 0.0000000000000000000 ) ) ;
#270 = ORGANIZATION ( 'UNSPECIFIED', 'UNSPECIFIED', '' ) ;
#271 = PLANE ( 'NONE',  #212 ) ;
#272 = VERTEX_POINT ( 'NONE', #210 ) ;
#273 = ORIENTED_EDGE ( 'NONE', *, *, #113, .T. ) ;
#274 = FACE_OUTER_BOUND ( 'NONE', #268, .T. ) ;
#275 = FACE_OUTER_BOUND ( 'NONE', #178, .T. ) ;
#276 = APPLICATION_PROTOCOL_DEFINITION ( 'international standard', 'config_control_design', 1994, #26 ) ;
#277 = PERSON_AND_ORGANIZATION ( #42, #270 ) ;
#278 = PRODUCT_DEFINITION_FORMATION_WITH_SPECIFIED_SOURCE ( 'ANY', '', #78, .NOT_KNOWN. ) ;
#279 = EDGE_CURVE ( 'NONE', #248, #248, #170, .T. ) ;
#280 = CC_DESIGN_APPROVAL ( #15, ( #278 ) ) ;
#281 = APPROVAL_ROLE ( '' ) ;
#282 = AXIS2_PLACEMENT_3D ( 'NONE', #190, #168, #119 ) ;
#283 = CIRCLE ( 'NONE', #134, 0.2199999999999996958 ) ;
ENDSEC;
END-ISO-10303-21;
