ISO-10303-21;
HEADER;
FILE_DESCRIPTION (( 'STEP AP203' ),
    '1' );
FILE_NAME ('200717.step',
    '2021-12-01T07:27:10',
    ( '' ),
    ( '' ),
    'SwSTEP 2.0',
    'SolidWorks 2019',
    '' );
FILE_SCHEMA (( 'CONFIG_CONTROL_DESIGN' ));
ENDSEC;

DATA;
#1 = VERTEX_POINT ( 'NONE', #70 ) ;
#2 = APPROVAL_STATUS ( 'not_yet_approved' ) ;
#3 = EDGE_CURVE ( 'NONE', #257, #257, #113, .T. ) ;
#4 = VERTEX_POINT ( 'NONE', #199 ) ;
#5 = LOCAL_TIME ( 8, 27, 10.00000000000000000, #49 ) ;
#6 = MECHANICAL_CONTEXT ( 'NONE', #148, 'mechanical' ) ;
#7 = COORDINATED_UNIVERSAL_TIME_OFFSET ( 1, 0, .AHEAD. ) ;
#8 = ORIENTED_EDGE ( 'NONE', *, *, #182, .F. ) ;
#9 = FACE_OUTER_BOUND ( 'NONE', #80, .T. ) ;
#10 = ADVANCED_FACE ( 'NONE', ( #31 ), #225, .F. ) ;
#11 = PRODUCT_DEFINITION_FORMATION_WITH_SPECIFIED_SOURCE ( 'ANY', '', #277, .NOT_KNOWN. ) ;
#12 = EDGE_LOOP ( 'NONE', ( #253 ) ) ;
#13 = CARTESIAN_POINT ( 'NONE',  ( 1.326762908760390423E-13, -4.653657836759941941E-15, 38.00000000000000000 ) ) ;
#14 = ADVANCED_FACE ( 'NONE', ( #33 ), #251, .F. ) ;
#15 = EDGE_LOOP ( 'NONE', ( #102 ) ) ;
#16 = APPROVAL_PERSON_ORGANIZATION ( #155, #32, #238 ) ;
#17 = DIRECTION ( 'NONE',  ( -3.491481338843133355E-15, 1.224646799147353207E-16, -1.000000000000000000 ) ) ;
#18 = FACE_OUTER_BOUND ( 'NONE', #79, .T. ) ;
#19 = CYLINDRICAL_SURFACE ( 'NONE', #127, 0.2099999999999997979 ) ;
#20 = DIRECTION ( 'NONE',  ( 3.491481338843133355E-15, -1.224646799147353207E-16, 1.000000000000000000 ) ) ;
#21 = AXIS2_PLACEMENT_3D ( 'NONE', #180, #114, #268 ) ;
#22 = DIRECTION ( 'NONE',  ( -3.491481338843133355E-15, 1.224646799147353207E-16, -1.000000000000000000 ) ) ;
#23 = CARTESIAN_POINT ( 'NONE',  ( 1.326762908760390423E-13, 8.998558695971103225E-33, 38.00000000000000000 ) ) ;
#24 = EDGE_CURVE ( 'NONE', #41, #41, #179, .T. ) ;
#25 = AXIS2_PLACEMENT_3D ( 'NONE', #126, #206, #103 ) ;
#26 = CARTESIAN_POINT ( 'NONE',  ( 1.316288464743861212E-13, 1.499999999999998668, 37.69999999999999574 ) ) ;
#27 = CARTESIAN_POINT ( 'NONE',  ( 1.047444401652940007E-14, 0.2099999999999992983, 3.000000000000000000 ) ) ;
#28 = DATE_TIME_ROLE ( 'creation_date' ) ;
#29 = AXIS2_PLACEMENT_3D ( 'NONE', #195, #64, #173 ) ;
#30 = UNCERTAINTY_MEASURE_WITH_UNIT (LENGTH_MEASURE( 1.000000000000000082E-05 ), #246, 'distance_accuracy_value', 'NONE');
#31 = FACE_OUTER_BOUND ( 'NONE', #82, .T. ) ;
#32 = APPROVAL ( #2, 'UNSPECIFIED' ) ;
#33 = FACE_OUTER_BOUND ( 'NONE', #274, .T. ) ;
#34 = CONICAL_SURFACE ( 'NONE', #232, 0.2099999999999993539, 0.5235987755982925984 ) ;
#35 = ORIENTED_EDGE ( 'NONE', *, *, #174, .T. ) ;
#36 = ORIENTED_EDGE ( 'NONE', *, *, #3, .F. ) ;
#37 = ORIENTED_EDGE ( 'NONE', *, *, #76, .F. ) ;
#38 = DIRECTION ( 'NONE',  ( 4.275831445896958607E-31, 1.000000000000000000, 1.224646799147353207E-16 ) ) ;
#39 = FACE_BOUND ( 'NONE', #156, .T. ) ;
#40 = EDGE_CURVE ( 'NONE', #63, #63, #169, .T. ) ;
#41 = VERTEX_POINT ( 'NONE', #191 ) ;
#42 = DIRECTION ( 'NONE',  ( 0.0000000000000000000, 1.000000000000000000, 0.0000000000000000000 ) ) ;
#43 = AXIS2_PLACEMENT_3D ( 'NONE', #23, #261, #45 ) ;
#44 = ADVANCED_FACE ( 'NONE', ( #141, #189 ), #248, .T. ) ;
#45 = DIRECTION ( 'NONE',  ( 4.275831445896958607E-31, 1.000000000000000000, 1.224646799147353207E-16 ) ) ;
#46 = APPLICATION_PROTOCOL_DEFINITION ( 'international standard', 'config_control_design', 1994, #144 ) ;
#47 = DATE_AND_TIME ( #243, #258 ) ;
#48 = TOROIDAL_SURFACE ( 'NONE', #160, 2.209999999999999520, 2.000000000000000000 ) ;
#49 = COORDINATED_UNIVERSAL_TIME_OFFSET ( 1, 0, .AHEAD. ) ;
#50 = PERSON_AND_ORGANIZATION_ROLE ( 'design_supplier' ) ;
#51 = APPROVAL_DATE_TIME ( #221, #106 ) ;
#52 = APPROVAL_PERSON_ORGANIZATION ( #77, #106, #267 ) ;
#53 = EDGE_CURVE ( 'NONE', #147, #147, #262, .T. ) ;
#54 = DATE_TIME_ROLE ( 'classification_date' ) ;
#55 = PRODUCT_RELATED_PRODUCT_CATEGORY ( 'detail', '', ( #277 ) ) ;
#56 = CARTESIAN_POINT ( 'NONE',  ( -3.255296800042772439E-32, 1.141804414675152935E-33, -9.323540595297530443E-18 ) ) ;
#57 = DIRECTION ( 'NONE',  ( -4.275831445896958607E-31, -1.000000000000000000, -1.224646799147353207E-16 ) ) ;
#58 = EDGE_LOOP ( 'NONE', ( #145 ) ) ;
#59 = EDGE_LOOP ( 'NONE', ( #272 ) ) ;
#60 = MANIFOLD_SOLID_BREP ( 'Corps-Déplacer/Copier1[2]', #193 ) ;
#61 = EDGE_LOOP ( 'NONE', ( #229 ) ) ;
#62 = ADVANCED_FACE ( 'NONE', ( #256, #9 ), #250, .T. ) ;
#63 = VERTEX_POINT ( 'NONE', #149 ) ;
#64 = DIRECTION ( 'NONE',  ( -3.491481338843133355E-15, 1.224646799147353207E-16, -1.000000000000000000 ) ) ;
#65 = CARTESIAN_POINT ( 'NONE',  ( 0.0000000000000000000, 0.0000000000000000000, 0.0000000000000000000 ) ) ;
#66 = ADVANCED_FACE ( 'NONE', ( #87 ), #263, .F. ) ;
#67 = CARTESIAN_POINT ( 'NONE',  ( 1.047444401652940007E-14, -3.673940397442059868E-16, 3.000000000000000000 ) ) ;
#68 = ORGANIZATION ( 'UNSPECIFIED', 'UNSPECIFIED', '' ) ;
#69 = CARTESIAN_POINT ( 'NONE',  ( 1.047444401652940007E-14, 1.574747771794942483E-33, 3.000000000000000000 ) ) ;
#70 = CARTESIAN_POINT ( 'NONE',  ( 3.491481338843134341E-16, 0.2099999999999993539, 0.1000000000000000194 ) ) ;
#71 = CC_DESIGN_PERSON_AND_ORGANIZATION_ASSIGNMENT ( #245, #50, ( #11 ) ) ;
#72 = AXIS2_PLACEMENT_3D ( 'NONE', #65, #259, #38 ) ;
#73 = PERSON_AND_ORGANIZATION ( #166, #68 ) ;
#74 = COORDINATED_UNIVERSAL_TIME_OFFSET ( 1, 0, .AHEAD. ) ;
#75 = CARTESIAN_POINT ( 'NONE',  ( 1.866998543791203065E-14, 0.2403844939755804544, 5.347296355333847728 ) ) ;
#76 = EDGE_CURVE ( 'NONE', #4, #4, #91, .T. ) ;
#77 = PERSON_AND_ORGANIZATION ( #166, #68 ) ;
#78 = CARTESIAN_POINT ( 'NONE',  ( 1.745740669421566678E-14, -6.123233995736766282E-16, 5.000000000000000000 ) ) ;
#79 = EDGE_LOOP ( 'NONE', ( #228 ) ) ;
#80 = EDGE_LOOP ( 'NONE', ( #100 ) ) ;
#81 = CIRCLE ( 'NONE', #242, 0.2099999999999993539 ) ;
#82 = EDGE_LOOP ( 'NONE', ( #205 ) ) ;
#83 = DIRECTION ( 'NONE',  ( 0.0000000000000000000, 1.000000000000000000, 0.0000000000000000000 ) ) ;
#84 = CC_DESIGN_PERSON_AND_ORGANIZATION_ASSIGNMENT ( #73, #154, ( #277 ) ) ;
#85 = FACE_OUTER_BOUND ( 'NONE', #12, .T. ) ;
#86 = AXIS2_PLACEMENT_3D ( 'NONE', #78, #167, #161 ) ;
#87 = FACE_OUTER_BOUND ( 'NONE', #163, .T. ) ;
#88 = CARTESIAN_POINT ( 'NONE',  ( 4.361185205260387453E-14, -1.529697851365455887E-15, 12.49093087435896621 ) ) ;
#89 = ADVANCED_FACE ( 'NONE', ( #39, #92 ), #216, .T. ) ;
#90 = FACE_OUTER_BOUND ( 'NONE', #271, .T. ) ;
#91 = CIRCLE ( 'NONE', #212, 0.2099999999999996869 ) ;
#92 = FACE_OUTER_BOUND ( 'NONE', #61, .T. ) ;
#93 = VERTEX_POINT ( 'NONE', #27 ) ;
#94 = EDGE_CURVE ( 'NONE', #1, #1, #81, .T. ) ;
#95 = APPROVAL_ROLE ( '' ) ;
#96 = VERTEX_POINT ( 'NONE', #75 ) ;
#97 = LOCAL_TIME ( 8, 27, 10.00000000000000000, #7 ) ;
#98 = SECURITY_CLASSIFICATION_LEVEL ( 'unclassified' ) ;
#99 = ORIENTED_EDGE ( 'NONE', *, *, #24, .F. ) ;
#100 = ORIENTED_EDGE ( 'NONE', *, *, #230, .T. ) ;
#101 = DESIGN_CONTEXT ( 'detailed design', #144, 'design' ) ;
#102 = ORIENTED_EDGE ( 'NONE', *, *, #94, .T. ) ;
#103 = DIRECTION ( 'NONE',  ( -4.275831445896958607E-31, -1.000000000000000000, -1.224646799147353207E-16 ) ) ;
#104 = DIRECTION ( 'NONE',  ( 4.275831445896957731E-31, 1.000000000000000000, 1.224646799147353207E-16 ) ) ;
#105 = ADVANCED_FACE ( 'NONE', ( #152 ), #194, .T. ) ;
#106 = APPROVAL ( #159, 'UNSPECIFIED' ) ;
#107 = DIRECTION ( 'NONE',  ( 4.275831445896959482E-31, 1.000000000000000000, 1.224646799147353207E-16 ) ) ;
#108 = DIRECTION ( 'NONE',  ( 3.491481338843133355E-15, -1.224646799147353207E-16, 1.000000000000000000 ) ) ;
#109 = CIRCLE ( 'NONE', #283, 0.2099999999999996869 ) ;
#110 = DIRECTION ( 'NONE',  ( -3.491481338843133355E-15, 1.224646799147353207E-16, -1.000000000000000000 ) ) ;
#111 = FACE_OUTER_BOUND ( 'NONE', #58, .T. ) ;
#112 = FACE_OUTER_BOUND ( 'NONE', #187, .T. ) ;
#113 = CIRCLE ( 'NONE', #226, 1.200000000000003286 ) ;
#114 = DIRECTION ( 'NONE',  ( 0.0000000000000000000, 0.0000000000000000000, 1.000000000000000000 ) ) ;
#115 = PERSON_AND_ORGANIZATION ( #166, #68 ) ;
#116 = PERSON_AND_ORGANIZATION_ROLE ( 'creator' ) ;
#117 = LOCAL_TIME ( 8, 27, 10.00000000000000000, #74 ) ;
#118 =( NAMED_UNIT ( * ) SI_UNIT ( $, .STERADIAN. ) SOLID_ANGLE_UNIT ( ) );
#119 = EDGE_LOOP ( 'NONE', ( #99 ) ) ;
#120 = DIRECTION ( 'NONE',  ( 3.491481338843133355E-15, -1.224646799147353207E-16, 1.000000000000000000 ) ) ;
#121 = EDGE_LOOP ( 'NONE', ( #165 ) ) ;
#122 = AXIS2_PLACEMENT_3D ( 'NONE', #204, #17, #104 ) ;
#123 = CC_DESIGN_PERSON_AND_ORGANIZATION_ASSIGNMENT ( #115, #158, ( #11 ) ) ;
#124 = CARTESIAN_POINT ( 'NONE',  ( 4.361185205260387453E-14, -1.529697851365455887E-15, 12.49093087435896621 ) ) ;
#125 = EDGE_LOOP ( 'NONE', ( #184 ) ) ;
#126 = CARTESIAN_POINT ( 'NONE',  ( 1.047444401652940007E-14, 1.574747771794942483E-33, 3.000000000000000000 ) ) ;
#127 = AXIS2_PLACEMENT_3D ( 'NONE', #213, #150, #128 ) ;
#128 = DIRECTION ( 'NONE',  ( 4.275831445896958607E-31, 1.000000000000000000, 1.224646799147353207E-16 ) ) ;
#129 = DIRECTION ( 'NONE',  ( -3.491481338843133355E-15, 1.224646799147353207E-16, -1.000000000000000000 ) ) ;
#130 = DIRECTION ( 'NONE',  ( -3.491481338843133355E-15, 1.224646799147353207E-16, -1.000000000000000000 ) ) ;
#131 = CIRCLE ( 'NONE', #29, 0.2403844939755810928 ) ;
#132 = DIRECTION ( 'NONE',  ( 0.0000000000000000000, 1.000000000000000000, 0.0000000000000000000 ) ) ;
#133 = DATE_AND_TIME ( #139, #97 ) ;
#134 = ADVANCED_FACE ( 'NONE', ( #111, #210 ), #171, .T. ) ;
#135 = PERSON_AND_ORGANIZATION ( #166, #68 ) ;
#136 = CALENDAR_DATE ( 2021, 1, 12 ) ;
#137 = DATE_AND_TIME ( #223, #5 ) ;
#138 = PERSON_AND_ORGANIZATION ( #166, #68 ) ;
#139 = CALENDAR_DATE ( 2021, 1, 12 ) ;
#140 = CALENDAR_DATE ( 2021, 1, 12 ) ;
#141 = FACE_OUTER_BOUND ( 'NONE', #59, .T. ) ;
#142 = EDGE_LOOP ( 'NONE', ( #37 ) ) ;
#143 = ORIENTED_EDGE ( 'NONE', *, *, #76, .T. ) ;
#144 = APPLICATION_CONTEXT ( 'configuration controlled 3d designs of mechanical parts and assemblies' ) ;
#145 = ORIENTED_EDGE ( 'NONE', *, *, #94, .F. ) ;
#146 = CARTESIAN_POINT ( 'NONE',  ( 1.326762908760390423E-13, -4.653657836759941941E-15, 38.00000000000000000 ) ) ;
#147 = VERTEX_POINT ( 'NONE', #282 ) ;
#148 = APPLICATION_CONTEXT ( 'configuration controlled 3d designs of mechanical parts and assemblies' ) ;
#149 = CARTESIAN_POINT ( 'NONE',  ( 0.0000000000000000000, 0.1522649730810376190, 0.0000000000000000000 ) ) ;
#150 = DIRECTION ( 'NONE',  ( -3.491481338843133355E-15, 1.224646799147353207E-16, -1.000000000000000000 ) ) ;
#151 = AXIS2_PLACEMENT_3D ( 'NONE', #69, #20, #237 ) ;
#152 = FACE_OUTER_BOUND ( 'NONE', #142, .T. ) ;
#153 = CC_DESIGN_DATE_AND_TIME_ASSIGNMENT ( #224, #54, ( #164 ) ) ;
#154 = PERSON_AND_ORGANIZATION_ROLE ( 'design_owner' ) ;
#155 = PERSON_AND_ORGANIZATION ( #166, #68 ) ;
#156 = EDGE_LOOP ( 'NONE', ( #270 ) ) ;
#157 = AXIS2_PLACEMENT_3D ( 'NONE', #56, #120, #57 ) ;
#158 = PERSON_AND_ORGANIZATION_ROLE ( 'creator' ) ;
#159 = APPROVAL_STATUS ( 'not_yet_approved' ) ;
#160 = AXIS2_PLACEMENT_3D ( 'NONE', #190, #281, #233 ) ;
#161 = DIRECTION ( 'NONE',  ( 0.0000000000000000000, 1.000000000000000000, 0.0000000000000000000 ) ) ;
#162 = DIRECTION ( 'NONE',  ( 0.0000000000000000000, 1.000000000000000000, 0.0000000000000000000 ) ) ;
#163 = EDGE_LOOP ( 'NONE', ( #36 ) ) ;
#164 = SECURITY_CLASSIFICATION ( '', '', #98 ) ;
#165 = ORIENTED_EDGE ( 'NONE', *, *, #40, .F. ) ;
#166 = PERSON ( 'UNSPECIFIED', 'UNSPECIFIED', 'UNSPECIFIED', ('UNSPECIFIED'), ('UNSPECIFIED'), ('UNSPECIFIED') ) ;
#167 = DIRECTION ( 'NONE',  ( -3.491481338843133355E-15, 1.224646799147353207E-16, -1.000000000000000000 ) ) ;
#168 = CARTESIAN_POINT ( 'NONE',  ( 3.491481338843133355E-16, -1.224646799147353115E-17, 0.09999999999999999167 ) ) ;
#169 = CIRCLE ( 'NONE', #122, 0.1522649730810376190 ) ;
#170 = ADVANCED_FACE ( 'NONE', ( #90, #18 ), #19, .T. ) ;
#171 = CYLINDRICAL_SURFACE ( 'NONE', #72, 0.2099999999999995204 ) ;
#172 = DIRECTION ( 'NONE',  ( -3.491481338843133355E-15, 1.224646799147353207E-16, -1.000000000000000000 ) ) ;
#173 = DIRECTION ( 'NONE',  ( 0.0000000000000000000, 1.000000000000000000, 0.0000000000000000000 ) ) ;
#174 = EDGE_CURVE ( 'NONE', #96, #96, #131, .T. ) ;
#175 = CC_DESIGN_APPROVAL ( #209, ( #11 ) ) ;
#176 = DIRECTION ( 'NONE',  ( -4.585547486636290312E-31, -1.000000000000000000, -1.290716872006556971E-16 ) ) ;
#177 =( NAMED_UNIT ( * ) PLANE_ANGLE_UNIT ( ) SI_UNIT ( $, .RADIAN. ) );
#178 = PERSON_AND_ORGANIZATION ( #166, #68 ) ;
#179 = CIRCLE ( 'NONE', #197, 1.499999999999996891 ) ;
#180 = CARTESIAN_POINT ( 'NONE',  ( 0.0000000000000000000, 0.0000000000000000000, 0.0000000000000000000 ) ) ;
#181 = VERTEX_POINT ( 'NONE', #26 ) ;
#182 = EDGE_CURVE ( 'NONE', #93, #93, #109, .T. ) ;
#183 = AXIS2_PLACEMENT_3D ( 'NONE', #280, #130, #107 ) ;
#184 = ORIENTED_EDGE ( 'NONE', *, *, #3, .T. ) ;
#185 = ADVANCED_BREP_SHAPE_REPRESENTATION ( '200717', ( #239, #60, #21 ), #236 ) ;
#186 = EDGE_LOOP ( 'NONE', ( #143 ) ) ;
#187 = EDGE_LOOP ( 'NONE', ( #35 ) ) ;
#188 = AXIS2_PLACEMENT_3D ( 'NONE', #208, #110, #132 ) ;
#189 = FACE_BOUND ( 'NONE', #125, .T. ) ;
#190 = CARTESIAN_POINT ( 'NONE',  ( 1.745740669421566678E-14, -4.336808689942017736E-16, 5.000000000000000000 ) ) ;
#191 = CARTESIAN_POINT ( 'NONE',  ( 4.361185205260387453E-14, 1.499999999999995559, 12.49093087435896621 ) ) ;
#192 = PRODUCT_DEFINITION_SHAPE ( 'NONE', 'NONE',  #218 ) ;
#193 = CLOSED_SHELL ( 'NONE', ( #14, #275, #134, #105 ) ) ;
#194 = PLANE ( 'NONE',  #151 ) ;
#195 = CARTESIAN_POINT ( 'NONE',  ( 1.866998543791203065E-14, -6.548549365651905381E-16, 5.347296355333847728 ) ) ;
#196 = FACE_BOUND ( 'NONE', #121, .T. ) ;
#197 = AXIS2_PLACEMENT_3D ( 'NONE', #124, #201, #254 ) ;
#198 = LOCAL_TIME ( 8, 27, 10.00000000000000000, #249 ) ;
#199 = CARTESIAN_POINT ( 'NONE',  ( 1.047444401652940007E-14, 0.2099999999999992983, 3.000000000000000000 ) ) ;
#200 = CC_DESIGN_PERSON_AND_ORGANIZATION_ASSIGNMENT ( #138, #220, ( #164 ) ) ;
#201 = DIRECTION ( 'NONE',  ( -3.491481338843133355E-15, 1.224646799147353207E-16, -1.000000000000000000 ) ) ;
#202 = APPROVAL_PERSON_ORGANIZATION ( #135, #209, #95 ) ;
#203 = ORIENTED_EDGE ( 'NONE', *, *, #40, .T. ) ;
#204 = CARTESIAN_POINT ( 'NONE',  ( -6.510593600085544877E-32, 2.283608829350305869E-33, -1.864708119059506089E-17 ) ) ;
#205 = ORIENTED_EDGE ( 'NONE', *, *, #182, .T. ) ;
#206 = DIRECTION ( 'NONE',  ( 3.491481338843133355E-15, -1.224646799147353207E-16, 1.000000000000000000 ) ) ;
#207 = CC_DESIGN_SECURITY_CLASSIFICATION ( #164, ( #11 ) ) ;
#208 = CARTESIAN_POINT ( 'NONE',  ( 1.316288464743861212E-13, -4.616918432785521081E-15, 37.69999999999999574 ) ) ;
#209 = APPROVAL ( #217, 'UNSPECIFIED' ) ;
#210 = FACE_OUTER_BOUND ( 'NONE', #186, .T. ) ;
#211 = DIRECTION ( 'NONE',  ( 0.0000000000000000000, 1.000000000000000000, 0.0000000000000000000 ) ) ;
#212 = AXIS2_PLACEMENT_3D ( 'NONE', #67, #172, #211 ) ;
#213 = CARTESIAN_POINT ( 'NONE',  ( 0.0000000000000000000, 0.0000000000000000000, 0.0000000000000000000 ) ) ;
#214 = CARTESIAN_POINT ( 'NONE',  ( 1.326762908760390423E-13, 1.199999999999998845, 38.00000000000000000 ) ) ;
#215 = APPLICATION_PROTOCOL_DEFINITION ( 'international standard', 'config_control_design', 1994, #148 ) ;
#216 = CONICAL_SURFACE ( 'NONE', #269, 1.499999999999996891, 0.1745329251994260922 ) ;
#217 = APPROVAL_STATUS ( 'not_yet_approved' ) ;
#218 = PRODUCT_DEFINITION ( 'UNKNOWN', '', #11, #101 ) ;
#219 = APPROVAL_DATE_TIME ( #137, #209 ) ;
#220 = PERSON_AND_ORGANIZATION_ROLE ( 'classification_officer' ) ;
#221 = DATE_AND_TIME ( #136, #117 ) ;
#222 = CC_DESIGN_APPROVAL ( #106, ( #164 ) ) ;
#223 = CALENDAR_DATE ( 2021, 1, 12 ) ;
#224 = DATE_AND_TIME ( #140, #198 ) ;
#225 = PLANE ( 'NONE',  #25 ) ;
#226 = AXIS2_PLACEMENT_3D ( 'NONE', #146, #227, #162 ) ;
#227 = DIRECTION ( 'NONE',  ( -3.491481338843133355E-15, 1.224646799147353207E-16, -1.000000000000000000 ) ) ;
#228 = ORIENTED_EDGE ( 'NONE', *, *, #53, .T. ) ;
#229 = ORIENTED_EDGE ( 'NONE', *, *, #24, .T. ) ;
#230 = EDGE_CURVE ( 'NONE', #181, #181, #265, .T. ) ;
#231 = DIRECTION ( 'NONE',  ( 3.491481338843133355E-15, -1.224646799147353207E-16, 1.000000000000000000 ) ) ;
#232 = AXIS2_PLACEMENT_3D ( 'NONE', #168, #108, #176 ) ;
#233 = DIRECTION ( 'NONE',  ( 4.401984863489641074E-31, 1.000000000000000000, 1.224646799147353207E-16 ) ) ;
#234 = DIRECTION ( 'NONE',  ( 0.0000000000000000000, -1.000000000000000000, 0.0000000000000000000 ) ) ;
#235 = CARTESIAN_POINT ( 'NONE',  ( 1.047444401652940007E-14, -3.673940397442059868E-16, 3.000000000000000000 ) ) ;
#236 =( GEOMETRIC_REPRESENTATION_CONTEXT ( 3 ) GLOBAL_UNCERTAINTY_ASSIGNED_CONTEXT ( ( #30 ) ) GLOBAL_UNIT_ASSIGNED_CONTEXT ( ( #246, #177, #118 ) ) REPRESENTATION_CONTEXT ( 'NONE', 'WORKASPACE' ) );
#237 = DIRECTION ( 'NONE',  ( -4.275831445896958607E-31, -1.000000000000000000, -1.224646799147353207E-16 ) ) ;
#238 = APPROVAL_ROLE ( '' ) ;
#239 = MANIFOLD_SOLID_BREP ( 'Corps-Déplacer/Copier1[1]', #273 ) ;
#240 = APPROVAL_DATE_TIME ( #133, #32 ) ;
#241 = ADVANCED_FACE ( 'NONE', ( #85, #112 ), #48, .F. ) ;
#242 = AXIS2_PLACEMENT_3D ( 'NONE', #279, #129, #260 ) ;
#243 = CALENDAR_DATE ( 2021, 1, 12 ) ;
#244 = SHAPE_DEFINITION_REPRESENTATION ( #192, #185 ) ;
#245 = PERSON_AND_ORGANIZATION ( #166, #68 ) ;
#246 =( LENGTH_UNIT ( ) NAMED_UNIT ( * ) SI_UNIT ( .MILLI., .METRE. ) );
#247 = AXIS2_PLACEMENT_3D ( 'NONE', #13, #276, #83 ) ;
#248 = CONICAL_SURFACE ( 'NONE', #247, 1.200000000000003286, 0.7853981633974453924 ) ;
#249 = COORDINATED_UNIVERSAL_TIME_OFFSET ( 1, 0, .AHEAD. ) ;
#250 = CYLINDRICAL_SURFACE ( 'NONE', #183, 1.500000000000000000 ) ;
#251 = PLANE ( 'NONE',  #157 ) ;
#252 = CC_DESIGN_APPROVAL ( #32, ( #218 ) ) ;
#253 = ORIENTED_EDGE ( 'NONE', *, *, #53, .F. ) ;
#254 = DIRECTION ( 'NONE',  ( 0.0000000000000000000, 1.000000000000000000, 0.0000000000000000000 ) ) ;
#255 = CC_DESIGN_PERSON_AND_ORGANIZATION_ASSIGNMENT ( #178, #116, ( #218 ) ) ;
#256 = FACE_OUTER_BOUND ( 'NONE', #119, .T. ) ;
#257 = VERTEX_POINT ( 'NONE', #214 ) ;
#258 = LOCAL_TIME ( 8, 27, 10.00000000000000000, #266 ) ;
#259 = DIRECTION ( 'NONE',  ( -3.491481338843133355E-15, 1.224646799147353207E-16, -1.000000000000000000 ) ) ;
#260 = DIRECTION ( 'NONE',  ( 4.585547486636290312E-31, 1.000000000000000000, 1.290716872006556971E-16 ) ) ;
#261 = DIRECTION ( 'NONE',  ( -3.491481338843133355E-15, 1.224646799147353207E-16, -1.000000000000000000 ) ) ;
#262 = CIRCLE ( 'NONE', #86, 0.2099999999999998812 ) ;
#263 = PLANE ( 'NONE',  #43 ) ;
#264 = CC_DESIGN_DATE_AND_TIME_ASSIGNMENT ( #47, #28, ( #218 ) ) ;
#265 = CIRCLE ( 'NONE', #188, 1.500000000000003331 ) ;
#266 = COORDINATED_UNIVERSAL_TIME_OFFSET ( 1, 0, .AHEAD. ) ;
#267 = APPROVAL_ROLE ( '' ) ;
#268 = DIRECTION ( 'NONE',  ( 1.000000000000000000, 0.0000000000000000000, 0.0000000000000000000 ) ) ;
#269 = AXIS2_PLACEMENT_3D ( 'NONE', #88, #231, #234 ) ;
#270 = ORIENTED_EDGE ( 'NONE', *, *, #174, .F. ) ;
#271 = EDGE_LOOP ( 'NONE', ( #8 ) ) ;
#272 = ORIENTED_EDGE ( 'NONE', *, *, #230, .F. ) ;
#273 = CLOSED_SHELL ( 'NONE', ( #10, #170, #241, #89, #62, #44, #66 ) ) ;
#274 = EDGE_LOOP ( 'NONE', ( #203 ) ) ;
#275 = ADVANCED_FACE ( 'NONE', ( #196, #278 ), #34, .T. ) ;
#276 = DIRECTION ( 'NONE',  ( -3.491481338843133355E-15, 1.224646799147353207E-16, -1.000000000000000000 ) ) ;
#277 = PRODUCT ( '200717', '200717', '', ( #6 ) ) ;
#278 = FACE_OUTER_BOUND ( 'NONE', #15, .T. ) ;
#279 = CARTESIAN_POINT ( 'NONE',  ( 3.491481338843133355E-16, -1.224646799147353115E-17, 0.09999999999999999167 ) ) ;
#280 = CARTESIAN_POINT ( 'NONE',  ( 0.0000000000000000000, 0.0000000000000000000, 0.0000000000000000000 ) ) ;
#281 = DIRECTION ( 'NONE',  ( -3.491481338843133355E-15, 1.224646799147353207E-16, -1.000000000000000000 ) ) ;
#282 = CARTESIAN_POINT ( 'NONE',  ( 1.745740669421566678E-14, 0.2099999999999992428, 5.000000000000000000 ) ) ;
#283 = AXIS2_PLACEMENT_3D ( 'NONE', #235, #22, #42 ) ;
ENDSEC;
END-ISO-10303-21;
