ISO-10303-21;
HEADER;
FILE_DESCRIPTION (( 'STEP AP203' ),
    '1' );
FILE_NAME ('200716.step',
    '2021-12-01T07:27:09',
    ( '' ),
    ( '' ),
    'SwSTEP 2.0',
    'SolidWorks 2019',
    '' );
FILE_SCHEMA (( 'CONFIG_CONTROL_DESIGN' ));
ENDSEC;

DATA;
#1 = COORDINATED_UNIVERSAL_TIME_OFFSET ( 1, 0, .AHEAD. ) ;
#2 = PERSON_AND_ORGANIZATION ( #228, #58 ) ;
#3 = DIRECTION ( 'NONE',  ( -3.491481338843133355E-15, 1.224646799147353207E-16, -1.000000000000000000 ) ) ;
#4 = PERSON_AND_ORGANIZATION_ROLE ( 'design_owner' ) ;
#5 = AXIS2_PLACEMENT_3D ( 'NONE', #229, #62, #31 ) ;
#6 = PRODUCT_DEFINITION_SHAPE ( 'NONE', 'NONE',  #147 ) ;
#7 = EDGE_LOOP ( 'NONE', ( #150 ) ) ;
#8 = PERSON_AND_ORGANIZATION ( #228, #58 ) ;
#9 = CARTESIAN_POINT ( 'NONE',  ( 1.316288464743861212E-13, -4.616918432785521081E-15, 37.69999999999999574 ) ) ;
#10 = AXIS2_PLACEMENT_3D ( 'NONE', #180, #255, #164 ) ;
#11 = CC_DESIGN_PERSON_AND_ORGANIZATION_ASSIGNMENT ( #132, #4, ( #98 ) ) ;
#12 = FACE_OUTER_BOUND ( 'NONE', #7, .T. ) ;
#13 = EDGE_LOOP ( 'NONE', ( #71 ) ) ;
#14 = PLANE ( 'NONE',  #160 ) ;
#15 = DIRECTION ( 'NONE',  ( 0.0000000000000000000, 1.000000000000000000, 0.0000000000000000000 ) ) ;
#16 = DIRECTION ( 'NONE',  ( 4.814824860968095763E-31, 1.000000000000000000, 1.355252715606882268E-16 ) ) ;
#17 = CARTESIAN_POINT ( 'NONE',  ( 1.866998543791203065E-14, 0.2303844939755815002, 5.347296355333847728 ) ) ;
#18 = ADVANCED_FACE ( 'NONE', ( #49, #155 ), #249, .T. ) ;
#19 = VERTEX_POINT ( 'NONE', #215 ) ;
#20 = DIRECTION ( 'NONE',  ( 4.275831445896958607E-31, 1.000000000000000000, 1.224646799147353207E-16 ) ) ;
#21 = CIRCLE ( 'NONE', #213, 0.2000000000000002887 ) ;
#22 = DIRECTION ( 'NONE',  ( 1.000000000000000000, 0.0000000000000000000, 0.0000000000000000000 ) ) ;
#23 =( GEOMETRIC_REPRESENTATION_CONTEXT ( 3 ) GLOBAL_UNCERTAINTY_ASSIGNED_CONTEXT ( ( #227 ) ) GLOBAL_UNIT_ASSIGNED_CONTEXT ( ( #145, #146, #282 ) ) REPRESENTATION_CONTEXT ( 'NONE', 'WORKASPACE' ) );
#24 = CALENDAR_DATE ( 2021, 1, 12 ) ;
#25 = PERSON_AND_ORGANIZATION_ROLE ( 'creator' ) ;
#26 = EDGE_CURVE ( 'NONE', #167, #167, #75, .T. ) ;
#27 = PERSON_AND_ORGANIZATION ( #228, #58 ) ;
#28 = EDGE_LOOP ( 'NONE', ( #133 ) ) ;
#29 = LOCAL_TIME ( 8, 27, 9.000000000000000000, #126 ) ;
#30 = CARTESIAN_POINT ( 'NONE',  ( 0.0000000000000000000, 0.0000000000000000000, 0.0000000000000000000 ) ) ;
#31 = DIRECTION ( 'NONE',  ( 4.275831445896958607E-31, 1.000000000000000000, 1.224646799147353207E-16 ) ) ;
#32 = EDGE_LOOP ( 'NONE', ( #90 ) ) ;
#33 = AXIS2_PLACEMENT_3D ( 'NONE', #206, #275, #73 ) ;
#34 = CARTESIAN_POINT ( 'NONE',  ( 1.047444401652940007E-14, -3.673940397442059868E-16, 3.000000000000000000 ) ) ;
#35 = DIRECTION ( 'NONE',  ( 4.275831445896959482E-31, 1.000000000000000000, 1.224646799147353207E-16 ) ) ;
#36 = CYLINDRICAL_SURFACE ( 'NONE', #5, 0.1999999999999999278 ) ;
#37 = CARTESIAN_POINT ( 'NONE',  ( 1.326762908760390423E-13, -4.653657836759941941E-15, 38.00000000000000000 ) ) ;
#38 = CIRCLE ( 'NONE', #124, 0.2000000000000000944 ) ;
#39 = DIRECTION ( 'NONE',  ( 3.491481338843133355E-15, -1.224646799147353207E-16, 1.000000000000000000 ) ) ;
#40 = CC_DESIGN_DATE_AND_TIME_ASSIGNMENT ( #154, #200, ( #283 ) ) ;
#41 = CARTESIAN_POINT ( 'NONE',  ( 4.380986379900901795E-14, -1.536643168492912676E-15, 12.54764369255513934 ) ) ;
#42 = CARTESIAN_POINT ( 'NONE',  ( 0.0000000000000000000, 0.0000000000000000000, 0.0000000000000000000 ) ) ;
#43 = DIRECTION ( 'NONE',  ( -3.491481338843133355E-15, 1.224646799147353207E-16, -1.000000000000000000 ) ) ;
#44 = DIRECTION ( 'NONE',  ( 0.0000000000000000000, 0.0000000000000000000, 1.000000000000000000 ) ) ;
#45 = AXIS2_PLACEMENT_3D ( 'NONE', #271, #60, #278 ) ;
#46 = APPROVAL_STATUS ( 'not_yet_approved' ) ;
#47 = COORDINATED_UNIVERSAL_TIME_OFFSET ( 1, 0, .AHEAD. ) ;
#48 = COORDINATED_UNIVERSAL_TIME_OFFSET ( 1, 0, .AHEAD. ) ;
#49 = FACE_OUTER_BOUND ( 'NONE', #135, .T. ) ;
#50 = AXIS2_PLACEMENT_3D ( 'NONE', #111, #181, #140 ) ;
#51 = ORIENTED_EDGE ( 'NONE', *, *, #179, .F. ) ;
#52 = PERSON_AND_ORGANIZATION ( #228, #58 ) ;
#53 = PRODUCT_RELATED_PRODUCT_CATEGORY ( 'detail', '', ( #98 ) ) ;
#54 = PLANE ( 'NONE',  #141 ) ;
#55 = ORIENTED_EDGE ( 'NONE', *, *, #204, .F. ) ;
#56 = APPLICATION_CONTEXT ( 'configuration controlled 3d designs of mechanical parts and assemblies' ) ;
#57 = DIRECTION ( 'NONE',  ( 0.0000000000000000000, 1.000000000000000000, 0.0000000000000000000 ) ) ;
#58 = ORGANIZATION ( 'UNSPECIFIED', 'UNSPECIFIED', '' ) ;
#59 = DIRECTION ( 'NONE',  ( 4.402285228769622521E-31, 1.000000000000000000, 1.224646799147353207E-16 ) ) ;
#60 = DIRECTION ( 'NONE',  ( -3.491481338843133355E-15, 1.224646799147353207E-16, -1.000000000000000000 ) ) ;
#61 = MANIFOLD_SOLID_BREP ( 'Corps-Déplacer/Copier1[1]', #223 ) ;
#62 = DIRECTION ( 'NONE',  ( -3.491481338843133355E-15, 1.224646799147353207E-16, -1.000000000000000000 ) ) ;
#63 = LOCAL_TIME ( 8, 27, 9.000000000000000000, #47 ) ;
#64 = CARTESIAN_POINT ( 'NONE',  ( 1.316288464743861212E-13, 1.499999999999998668, 37.69999999999999574 ) ) ;
#65 = DIRECTION ( 'NONE',  ( 0.0000000000000000000, 1.000000000000000000, 0.0000000000000000000 ) ) ;
#66 = EDGE_CURVE ( 'NONE', #83, #83, #21, .T. ) ;
#67 = DIRECTION ( 'NONE',  ( -4.275831445896958607E-31, -1.000000000000000000, -1.224646799147353207E-16 ) ) ;
#68 = AXIS2_PLACEMENT_3D ( 'NONE', #9, #222, #91 ) ;
#69 = DATE_AND_TIME ( #24, #125 ) ;
#70 = APPROVAL_PERSON_ORGANIZATION ( #103, #113, #248 ) ;
#71 = ORIENTED_EDGE ( 'NONE', *, *, #194, .F. ) ;
#72 = DIRECTION ( 'NONE',  ( 4.275831445896958607E-31, 1.000000000000000000, 1.224646799147353207E-16 ) ) ;
#73 = DIRECTION ( 'NONE',  ( 0.0000000000000000000, 1.000000000000000000, 0.0000000000000000000 ) ) ;
#74 = ADVANCED_FACE ( 'NONE', ( #156 ), #54, .F. ) ;
#75 = CIRCLE ( 'NONE', #68, 1.500000000000003331 ) ;
#76 = FACE_BOUND ( 'NONE', #152, .T. ) ;
#77 = FACE_OUTER_BOUND ( 'NONE', #224, .T. ) ;
#78 = FACE_OUTER_BOUND ( 'NONE', #207, .T. ) ;
#79 = VERTEX_POINT ( 'NONE', #192 ) ;
#80 = VERTEX_POINT ( 'NONE', #17 ) ;
#81 = ADVANCED_FACE ( 'NONE', ( #252, #77 ), #217, .F. ) ;
#82 = CIRCLE ( 'NONE', #189, 0.1999999999999997613 ) ;
#83 = VERTEX_POINT ( 'NONE', #168 ) ;
#84 = CC_DESIGN_PERSON_AND_ORGANIZATION_ASSIGNMENT ( #2, #149, ( #147 ) ) ;
#85 = CALENDAR_DATE ( 2021, 1, 12 ) ;
#86 = CONICAL_SURFACE ( 'NONE', #50, 0.1999999999999997613, 0.5235987755982922653 ) ;
#87 = APPROVAL_DATE_TIME ( #127, #197 ) ;
#88 = CC_DESIGN_APPROVAL ( #197, ( #147 ) ) ;
#89 = ORIENTED_EDGE ( 'NONE', *, *, #66, .F. ) ;
#90 = ORIENTED_EDGE ( 'NONE', *, *, #269, .T. ) ;
#91 = DIRECTION ( 'NONE',  ( 0.0000000000000000000, 1.000000000000000000, 0.0000000000000000000 ) ) ;
#92 = DIRECTION ( 'NONE',  ( 0.0000000000000000000, 1.000000000000000000, 0.0000000000000000000 ) ) ;
#93 = ORIENTED_EDGE ( 'NONE', *, *, #240, .T. ) ;
#94 = DIRECTION ( 'NONE',  ( -3.491481338843133355E-15, 1.224646799147353207E-16, -1.000000000000000000 ) ) ;
#95 = CIRCLE ( 'NONE', #121, 0.2000000000000000944 ) ;
#96 = FACE_OUTER_BOUND ( 'NONE', #254, .T. ) ;
#97 = DIRECTION ( 'NONE',  ( -3.491481338843133355E-15, 1.224646799147353207E-16, -1.000000000000000000 ) ) ;
#98 = PRODUCT ( '200716', '200716', '', ( #280 ) ) ;
#99 = APPROVAL ( #46, 'UNSPECIFIED' ) ;
#100 = DIRECTION ( 'NONE',  ( -3.491481338843133355E-15, 1.224646799147353207E-16, -1.000000000000000000 ) ) ;
#101 = CALENDAR_DATE ( 2021, 1, 12 ) ;
#102 = ADVANCED_FACE ( 'NONE', ( #161, #96 ), #86, .T. ) ;
#103 = PERSON_AND_ORGANIZATION ( #228, #58 ) ;
#104 = SHAPE_DEFINITION_REPRESENTATION ( #6, #211 ) ;
#105 = APPROVAL_ROLE ( '' ) ;
#106 = CARTESIAN_POINT ( 'NONE',  ( 1.745740669421566362E-14, -6.123233995736765296E-16, 4.999999999999999112 ) ) ;
#107 = COORDINATED_UNIVERSAL_TIME_OFFSET ( 1, 0, .AHEAD. ) ;
#108 = CC_DESIGN_PERSON_AND_ORGANIZATION_ASSIGNMENT ( #220, #174, ( #283 ) ) ;
#109 = ORIENTED_EDGE ( 'NONE', *, *, #247, .T. ) ;
#110 = ORIENTED_EDGE ( 'NONE', *, *, #66, .T. ) ;
#111 = CARTESIAN_POINT ( 'NONE',  ( 3.491481338843131876E-16, -1.224646799147352653E-17, 0.09999999999999995004 ) ) ;
#112 = EDGE_LOOP ( 'NONE', ( #182 ) ) ;
#113 = APPROVAL ( #267, 'UNSPECIFIED' ) ;
#114 = FACE_OUTER_BOUND ( 'NONE', #32, .T. ) ;
#115 = CARTESIAN_POINT ( 'NONE',  ( 1.745740669421566362E-14, -4.336808689942017736E-16, 4.999999999999999112 ) ) ;
#116 = AXIS2_PLACEMENT_3D ( 'NONE', #41, #43, #65 ) ;
#117 = PRODUCT_DEFINITION_FORMATION_WITH_SPECIFIED_SOURCE ( 'ANY', '', #98, .NOT_KNOWN. ) ;
#118 = APPLICATION_CONTEXT ( 'configuration controlled 3d designs of mechanical parts and assemblies' ) ;
#119 = PLANE ( 'NONE',  #259 ) ;
#120 = DIRECTION ( 'NONE',  ( 3.491481338843133355E-15, -1.224646799147353207E-16, 1.000000000000000000 ) ) ;
#121 = AXIS2_PLACEMENT_3D ( 'NONE', #134, #158, #185 ) ;
#122 = VERTEX_POINT ( 'NONE', #143 ) ;
#123 = CARTESIAN_POINT ( 'NONE',  ( 1.047444401652940007E-14, 1.499759782661852647E-33, 3.000000000000000000 ) ) ;
#124 = AXIS2_PLACEMENT_3D ( 'NONE', #34, #205, #92 ) ;
#125 = LOCAL_TIME ( 8, 27, 9.000000000000000000, #1 ) ;
#126 = COORDINATED_UNIVERSAL_TIME_OFFSET ( 1, 0, .AHEAD. ) ;
#127 = DATE_AND_TIME ( #198, #29 ) ;
#128 = APPROVAL_ROLE ( '' ) ;
#129 = CC_DESIGN_PERSON_AND_ORGANIZATION_ASSIGNMENT ( #8, #25, ( #117 ) ) ;
#130 = AXIS2_PLACEMENT_3D ( 'NONE', #273, #235, #57 ) ;
#131 = ORIENTED_EDGE ( 'NONE', *, *, #240, .F. ) ;
#132 = PERSON_AND_ORGANIZATION ( #228, #58 ) ;
#133 = ORIENTED_EDGE ( 'NONE', *, *, #194, .T. ) ;
#134 = CARTESIAN_POINT ( 'NONE',  ( 1.047444401652940007E-14, -3.673940397442059868E-16, 3.000000000000000000 ) ) ;
#135 = EDGE_LOOP ( 'NONE', ( #274 ) ) ;
#136 = CARTESIAN_POINT ( 'NONE',  ( 3.491481338843131876E-16, -1.224646799147352653E-17, 0.09999999999999995004 ) ) ;
#137 = FACE_OUTER_BOUND ( 'NONE', #270, .T. ) ;
#138 = ADVANCED_FACE ( 'NONE', ( #208 ), #119, .F. ) ;
#139 = DIRECTION ( 'NONE',  ( 0.0000000000000000000, 1.000000000000000000, 0.0000000000000000000 ) ) ;
#140 = DIRECTION ( 'NONE',  ( -4.814824860968095763E-31, -1.000000000000000000, -1.355252715606882268E-16 ) ) ;
#141 = AXIS2_PLACEMENT_3D ( 'NONE', #233, #250, #279 ) ;
#142 = CARTESIAN_POINT ( 'NONE',  ( 3.491481338843132862E-16, 0.1999999999999997613, 0.09999999999999997780 ) ) ;
#143 = CARTESIAN_POINT ( 'NONE',  ( -9.463679131915807877E-32, 0.1422649730810380819, -2.710505431213761085E-17 ) ) ;
#144 = MANIFOLD_SOLID_BREP ( 'Corps-Déplacer/Copier1[2]', #170 ) ;
#145 =( LENGTH_UNIT ( ) NAMED_UNIT ( * ) SI_UNIT ( .MILLI., .METRE. ) );
#146 =( NAMED_UNIT ( * ) PLANE_ANGLE_UNIT ( ) SI_UNIT ( $, .RADIAN. ) );
#147 = PRODUCT_DEFINITION ( 'UNKNOWN', '', #117, #165 ) ;
#148 = CIRCLE ( 'NONE', #130, 0.2303844939755821664 ) ;
#149 = PERSON_AND_ORGANIZATION_ROLE ( 'creator' ) ;
#150 = ORIENTED_EDGE ( 'NONE', *, *, #151, .T. ) ;
#151 = EDGE_CURVE ( 'NONE', #19, #19, #38, .T. ) ;
#152 = EDGE_LOOP ( 'NONE', ( #55 ) ) ;
#153 = AXIS2_PLACEMENT_3D ( 'NONE', #30, #203, #35 ) ;
#154 = DATE_AND_TIME ( #244, #63 ) ;
#155 = FACE_OUTER_BOUND ( 'NONE', #159, .T. ) ;
#156 = FACE_OUTER_BOUND ( 'NONE', #28, .T. ) ;
#157 = EDGE_LOOP ( 'NONE', ( #51 ) ) ;
#158 = DIRECTION ( 'NONE',  ( -3.491481338843133355E-15, 1.224646799147353207E-16, -1.000000000000000000 ) ) ;
#159 = EDGE_LOOP ( 'NONE', ( #176 ) ) ;
#160 = AXIS2_PLACEMENT_3D ( 'NONE', #212, #97, #72 ) ;
#161 = FACE_BOUND ( 'NONE', #13, .T. ) ;
#162 = DIRECTION ( 'NONE',  ( -3.491481338843133355E-15, 1.224646799147353207E-16, -1.000000000000000000 ) ) ;
#163 = CC_DESIGN_PERSON_AND_ORGANIZATION_ASSIGNMENT ( #27, #175, ( #117 ) ) ;
#164 = DIRECTION ( 'NONE',  ( 0.0000000000000000000, -1.000000000000000000, 0.0000000000000000000 ) ) ;
#165 = DESIGN_CONTEXT ( 'detailed design', #56, 'design' ) ;
#166 = ADVANCED_FACE ( 'NONE', ( #76, #114 ), #209, .T. ) ;
#167 = VERTEX_POINT ( 'NONE', #64 ) ;
#168 = CARTESIAN_POINT ( 'NONE',  ( 1.745740669421566362E-14, 0.1999999999999996503, 4.999999999999999112 ) ) ;
#169 = VERTEX_POINT ( 'NONE', #142 ) ;
#170 = CLOSED_SHELL ( 'NONE', ( #74, #102, #187, #281 ) ) ;
#171 = DATE_TIME_ROLE ( 'creation_date' ) ;
#172 = DATE_AND_TIME ( #85, #183 ) ;
#173 = AXIS2_PLACEMENT_3D ( 'NONE', #264, #100, #20 ) ;
#174 = PERSON_AND_ORGANIZATION_ROLE ( 'classification_officer' ) ;
#175 = PERSON_AND_ORGANIZATION_ROLE ( 'design_supplier' ) ;
#176 = ORIENTED_EDGE ( 'NONE', *, *, #26, .T. ) ;
#177 = AXIS2_PLACEMENT_3D ( 'NONE', #115, #94, #59 ) ;
#178 = AXIS2_PLACEMENT_3D ( 'NONE', #123, #120, #67 ) ;
#179 = EDGE_CURVE ( 'NONE', #79, #79, #95, .T. ) ;
#180 = CARTESIAN_POINT ( 'NONE',  ( 4.380986379900901795E-14, -1.536643168492912676E-15, 12.54764369255513934 ) ) ;
#181 = DIRECTION ( 'NONE',  ( 3.491481338843133355E-15, -1.224646799147353207E-16, 1.000000000000000000 ) ) ;
#182 = ORIENTED_EDGE ( 'NONE', *, *, #247, .F. ) ;
#183 = LOCAL_TIME ( 8, 27, 9.000000000000000000, #48 ) ;
#184 = DIRECTION ( 'NONE',  ( -4.275831445896958607E-31, -1.000000000000000000, -1.224646799147353207E-16 ) ) ;
#185 = DIRECTION ( 'NONE',  ( 0.0000000000000000000, 1.000000000000000000, 0.0000000000000000000 ) ) ;
#186 = APPLICATION_PROTOCOL_DEFINITION ( 'international standard', 'config_control_design', 1994, #118 ) ;
#187 = ADVANCED_FACE ( 'NONE', ( #257, #12 ), #36, .T. ) ;
#188 = FACE_OUTER_BOUND ( 'NONE', #157, .T. ) ;
#189 = AXIS2_PLACEMENT_3D ( 'NONE', #136, #162, #16 ) ;
#190 = CC_DESIGN_SECURITY_CLASSIFICATION ( #283, ( #117 ) ) ;
#191 = CYLINDRICAL_SURFACE ( 'NONE', #173, 0.2000000000000002054 ) ;
#192 = CARTESIAN_POINT ( 'NONE',  ( 1.047444401652940007E-14, 0.1999999999999997058, 3.000000000000000000 ) ) ;
#193 = PLANE ( 'NONE',  #178 ) ;
#194 = EDGE_CURVE ( 'NONE', #122, #122, #277, .T. ) ;
#195 = CC_DESIGN_APPROVAL ( #99, ( #117 ) ) ;
#196 = DATE_AND_TIME ( #101, #218 ) ;
#197 = APPROVAL ( #265, 'UNSPECIFIED' ) ;
#198 = CALENDAR_DATE ( 2021, 1, 12 ) ;
#199 = CONICAL_SURFACE ( 'NONE', #237, 1.200000000000003286, 0.7853981633974453924 ) ;
#200 = DATE_TIME_ROLE ( 'classification_date' ) ;
#201 = EDGE_LOOP ( 'NONE', ( #93 ) ) ;
#202 = EDGE_LOOP ( 'NONE', ( #131 ) ) ;
#203 = DIRECTION ( 'NONE',  ( -3.491481338843133355E-15, 1.224646799147353207E-16, -1.000000000000000000 ) ) ;
#204 = EDGE_CURVE ( 'NONE', #80, #80, #148, .T. ) ;
#205 = DIRECTION ( 'NONE',  ( -3.491481338843133355E-15, 1.224646799147353207E-16, -1.000000000000000000 ) ) ;
#206 = CARTESIAN_POINT ( 'NONE',  ( 1.326762908760390423E-13, -4.653657836759941941E-15, 38.00000000000000000 ) ) ;
#207 = EDGE_LOOP ( 'NONE', ( #110 ) ) ;
#208 = FACE_OUTER_BOUND ( 'NONE', #276, .T. ) ;
#209 = CONICAL_SURFACE ( 'NONE', #10, 1.499999999999996891, 0.1745329251994260922 ) ;
#210 = DIRECTION ( 'NONE',  ( -3.491481338843133355E-15, 1.224646799147353207E-16, -1.000000000000000000 ) ) ;
#211 = ADVANCED_BREP_SHAPE_REPRESENTATION ( '200716', ( #61, #144, #246 ), #23 ) ;
#212 = CARTESIAN_POINT ( 'NONE',  ( 1.326762908760390423E-13, 8.998558695971103225E-33, 38.00000000000000000 ) ) ;
#213 = AXIS2_PLACEMENT_3D ( 'NONE', #106, #3, #139 ) ;
#214 = APPROVAL_PERSON_ORGANIZATION ( #52, #197, #105 ) ;
#215 = CARTESIAN_POINT ( 'NONE',  ( 1.047444401652940007E-14, 0.1999999999999997058, 3.000000000000000000 ) ) ;
#216 = ADVANCED_FACE ( 'NONE', ( #231 ), #14, .F. ) ;
#217 = TOROIDAL_SURFACE ( 'NONE', #177, 2.200000000000000178, 2.000000000000000000 ) ;
#218 = LOCAL_TIME ( 8, 27, 9.000000000000000000, #107 ) ;
#219 = APPROVAL_DATE_TIME ( #196, #113 ) ;
#220 = PERSON_AND_ORGANIZATION ( #228, #58 ) ;
#221 = PERSON_AND_ORGANIZATION ( #228, #58 ) ;
#222 = DIRECTION ( 'NONE',  ( -3.491481338843133355E-15, 1.224646799147353207E-16, -1.000000000000000000 ) ) ;
#223 = CLOSED_SHELL ( 'NONE', ( #138, #272, #81, #166, #18, #258, #216 ) ) ;
#224 = EDGE_LOOP ( 'NONE', ( #251 ) ) ;
#225 = APPLICATION_PROTOCOL_DEFINITION ( 'international standard', 'config_control_design', 1994, #56 ) ;
#226 = ORIENTED_EDGE ( 'NONE', *, *, #151, .F. ) ;
#227 = UNCERTAINTY_MEASURE_WITH_UNIT (LENGTH_MEASURE( 1.000000000000000082E-05 ), #145, 'distance_accuracy_value', 'NONE');
#228 = PERSON ( 'UNSPECIFIED', 'UNSPECIFIED', 'UNSPECIFIED', ('UNSPECIFIED'), ('UNSPECIFIED'), ('UNSPECIFIED') ) ;
#229 = CARTESIAN_POINT ( 'NONE',  ( 0.0000000000000000000, 0.0000000000000000000, 0.0000000000000000000 ) ) ;
#230 = ORIENTED_EDGE ( 'NONE', *, *, #26, .F. ) ;
#231 = FACE_OUTER_BOUND ( 'NONE', #202, .T. ) ;
#232 = ORIENTED_EDGE ( 'NONE', *, *, #179, .T. ) ;
#233 = CARTESIAN_POINT ( 'NONE',  ( -7.773344793705838541E-32, 2.726522325745787930E-33, -2.226374435179268681E-17 ) ) ;
#234 = FACE_BOUND ( 'NONE', #201, .T. ) ;
#235 = DIRECTION ( 'NONE',  ( -3.491481338843133355E-15, 1.224646799147353207E-16, -1.000000000000000000 ) ) ;
#236 = CARTESIAN_POINT ( 'NONE',  ( 1.326762908760390423E-13, 1.199999999999998845, 38.00000000000000000 ) ) ;
#237 = AXIS2_PLACEMENT_3D ( 'NONE', #37, #210, #15 ) ;
#238 = CC_DESIGN_APPROVAL ( #113, ( #283 ) ) ;
#239 = VERTEX_POINT ( 'NONE', #263 ) ;
#240 = EDGE_CURVE ( 'NONE', #262, #262, #241, .T. ) ;
#241 = CIRCLE ( 'NONE', #33, 1.200000000000003286 ) ;
#242 = SECURITY_CLASSIFICATION_LEVEL ( 'unclassified' ) ;
#243 = EDGE_LOOP ( 'NONE', ( #89 ) ) ;
#244 = CALENDAR_DATE ( 2021, 1, 12 ) ;
#245 = CIRCLE ( 'NONE', #116, 1.499999999999996891 ) ;
#246 = AXIS2_PLACEMENT_3D ( 'NONE', #42, #44, #22 ) ;
#247 = EDGE_CURVE ( 'NONE', #169, #169, #82, .T. ) ;
#248 = APPROVAL_ROLE ( '' ) ;
#249 = CYLINDRICAL_SURFACE ( 'NONE', #153, 1.500000000000000000 ) ;
#250 = DIRECTION ( 'NONE',  ( 3.491481338843133355E-15, -1.224646799147353207E-16, 1.000000000000000000 ) ) ;
#251 = ORIENTED_EDGE ( 'NONE', *, *, #204, .T. ) ;
#252 = FACE_OUTER_BOUND ( 'NONE', #243, .T. ) ;
#253 = CC_DESIGN_DATE_AND_TIME_ASSIGNMENT ( #172, #171, ( #147 ) ) ;
#254 = EDGE_LOOP ( 'NONE', ( #109 ) ) ;
#255 = DIRECTION ( 'NONE',  ( 3.491481338843133355E-15, -1.224646799147353207E-16, 1.000000000000000000 ) ) ;
#256 = CARTESIAN_POINT ( 'NONE',  ( 1.047444401652940007E-14, 1.499759782661852647E-33, 3.000000000000000000 ) ) ;
#257 = FACE_OUTER_BOUND ( 'NONE', #112, .T. ) ;
#258 = ADVANCED_FACE ( 'NONE', ( #137, #234 ), #199, .T. ) ;
#259 = AXIS2_PLACEMENT_3D ( 'NONE', #256, #39, #184 ) ;
#260 = APPROVAL_PERSON_ORGANIZATION ( #221, #99, #128 ) ;
#261 = FACE_OUTER_BOUND ( 'NONE', #268, .T. ) ;
#262 = VERTEX_POINT ( 'NONE', #236 ) ;
#263 = CARTESIAN_POINT ( 'NONE',  ( 4.380986379900901795E-14, 1.499999999999995559, 12.54764369255513934 ) ) ;
#264 = CARTESIAN_POINT ( 'NONE',  ( 0.0000000000000000000, 0.0000000000000000000, 0.0000000000000000000 ) ) ;
#265 = APPROVAL_STATUS ( 'not_yet_approved' ) ;
#266 = APPROVAL_DATE_TIME ( #69, #99 ) ;
#267 = APPROVAL_STATUS ( 'not_yet_approved' ) ;
#268 = EDGE_LOOP ( 'NONE', ( #226 ) ) ;
#269 = EDGE_CURVE ( 'NONE', #239, #239, #245, .T. ) ;
#270 = EDGE_LOOP ( 'NONE', ( #230 ) ) ;
#271 = CARTESIAN_POINT ( 'NONE',  ( -1.554668958741167708E-31, 5.453044651491575860E-33, -4.452748870358537363E-17 ) ) ;
#272 = ADVANCED_FACE ( 'NONE', ( #188, #78 ), #191, .T. ) ;
#273 = CARTESIAN_POINT ( 'NONE',  ( 1.866998543791203065E-14, -6.548549365651905381E-16, 5.347296355333847728 ) ) ;
#274 = ORIENTED_EDGE ( 'NONE', *, *, #269, .F. ) ;
#275 = DIRECTION ( 'NONE',  ( -3.491481338843133355E-15, 1.224646799147353207E-16, -1.000000000000000000 ) ) ;
#276 = EDGE_LOOP ( 'NONE', ( #232 ) ) ;
#277 = CIRCLE ( 'NONE', #45, 0.1422649730810380819 ) ;
#278 = DIRECTION ( 'NONE',  ( 4.275831445896958607E-31, 1.000000000000000000, 1.224646799147353207E-16 ) ) ;
#279 = DIRECTION ( 'NONE',  ( -4.275831445896958607E-31, -1.000000000000000000, -1.224646799147353207E-16 ) ) ;
#280 = MECHANICAL_CONTEXT ( 'NONE', #118, 'mechanical' ) ;
#281 = ADVANCED_FACE ( 'NONE', ( #261 ), #193, .T. ) ;
#282 =( NAMED_UNIT ( * ) SI_UNIT ( $, .STERADIAN. ) SOLID_ANGLE_UNIT ( ) );
#283 = SECURITY_CLASSIFICATION ( '', '', #242 ) ;
ENDSEC;
END-ISO-10303-21;
