ISO-10303-21;
HEADER;
FILE_DESCRIPTION (( 'STEP AP203' ),
    '1' );
FILE_NAME ('200715.step',
    '2021-12-01T10:39:47',
    ( '' ),
    ( '' ),
    'SwSTEP 2.0',
    'SolidWorks 2019',
    '' );
FILE_SCHEMA (( 'CONFIG_CONTROL_DESIGN' ));
ENDSEC;

DATA;
#1 = PERSON_AND_ORGANIZATION_ROLE ( 'creator' ) ;
#2 = AXIS2_PLACEMENT_3D ( 'NONE', #300, #70, #270 ) ;
#3 = CARTESIAN_POINT ( 'NONE',  ( 3.840629472727446691E-14, 0.4549999999999992384, 11.00000000000000000 ) ) ;
#4 = PRODUCT_RELATED_PRODUCT_CATEGORY ( 'detail', '', ( #211 ) ) ;
#5 = VERTEX_POINT ( 'NONE', #98 ) ;
#6 = PERSON ( 'UNSPECIFIED', 'UNSPECIFIED', 'UNSPECIFIED', ('UNSPECIFIED'), ('UNSPECIFIED'), ('UNSPECIFIED') ) ;
#7 = CIRCLE ( 'NONE', #51, 1.200000000000003286 ) ;
#8 = DIRECTION ( 'NONE',  ( -3.491481338843133355E-15, 1.224646799147353207E-16, -1.000000000000000000 ) ) ;
#9 = APPROVAL_ROLE ( '' ) ;
#10 = PERSON_AND_ORGANIZATION ( #6, #23 ) ;
#11 = ORIENTED_EDGE ( 'NONE', *, *, #26, .T. ) ;
#12 = EDGE_LOOP ( 'NONE', ( #249 ) ) ;
#13 = ADVANCED_FACE ( 'NONE', ( #244, #61 ), #82, .T. ) ;
#14 = APPROVAL_DATE_TIME ( #292, #186 ) ;
#15 = EDGE_LOOP ( 'NONE', ( #215 ) ) ;
#16 = FACE_OUTER_BOUND ( 'NONE', #19, .T. ) ;
#17 = AXIS2_PLACEMENT_3D ( 'NONE', #78, #282, #260 ) ;
#18 = CC_DESIGN_APPROVAL ( #297, ( #36 ) ) ;
#19 = EDGE_LOOP ( 'NONE', ( #58 ) ) ;
#20 = DIRECTION ( 'NONE',  ( -3.491481338843133355E-15, 1.224646799147353207E-16, -1.000000000000000000 ) ) ;
#21 = FACE_OUTER_BOUND ( 'NONE', #149, .T. ) ;
#22 = DIRECTION ( 'NONE',  ( -3.491481338843133355E-15, 1.224646799147353207E-16, -1.000000000000000000 ) ) ;
#23 = ORGANIZATION ( 'UNSPECIFIED', 'UNSPECIFIED', '' ) ;
#24 = CARTESIAN_POINT ( 'NONE',  ( 0.0000000000000000000, 0.0000000000000000000, 0.0000000000000000000 ) ) ;
#25 = FACE_OUTER_BOUND ( 'NONE', #223, .T. ) ;
#26 = EDGE_CURVE ( 'NONE', #118, #118, #68, .T. ) ;
#27 =( LENGTH_UNIT ( ) NAMED_UNIT ( * ) SI_UNIT ( .MILLI., .METRE. ) );
#28 = ADVANCED_FACE ( 'NONE', ( #16 ), #197, .T. ) ;
#29 = AXIS2_PLACEMENT_3D ( 'NONE', #206, #184, #47 ) ;
#30 = PRODUCT_DEFINITION_SHAPE ( 'NONE', 'NONE',  #36 ) ;
#31 = CC_DESIGN_APPROVAL ( #186, ( #69 ) ) ;
#32 = APPLICATION_PROTOCOL_DEFINITION ( 'international standard', 'config_control_design', 1994, #101 ) ;
#33 = DATE_AND_TIME ( #177, #286 ) ;
#34 = ORIENTED_EDGE ( 'NONE', *, *, #172, .F. ) ;
#35 = DIRECTION ( 'NONE',  ( 3.491481338843133355E-15, -1.224646799147353207E-16, 1.000000000000000000 ) ) ;
#36 = PRODUCT_DEFINITION ( 'UNKNOWN', '', #274, #230 ) ;
#37 = AXIS2_PLACEMENT_3D ( 'NONE', #195, #153, #220 ) ;
#38 = AXIS2_PLACEMENT_3D ( 'NONE', #161, #20, #228 ) ;
#39 = CC_DESIGN_SECURITY_CLASSIFICATION ( #69, ( #274 ) ) ;
#40 = PERSON_AND_ORGANIZATION ( #6, #23 ) ;
#41 = ORIENTED_EDGE ( 'NONE', *, *, #92, .F. ) ;
#42 = PERSON_AND_ORGANIZATION ( #6, #23 ) ;
#43 = ORIENTED_EDGE ( 'NONE', *, *, #296, .T. ) ;
#44 = PLANE ( 'NONE',  #150 ) ;
#45 = CLOSED_SHELL ( 'NONE', ( #60, #103, #240, #28 ) ) ;
#46 = CC_DESIGN_APPROVAL ( #120, ( #274 ) ) ;
#47 = DIRECTION ( 'NONE',  ( 4.275831445896958607E-31, 1.000000000000000000, 1.224646799147353207E-16 ) ) ;
#48 = CARTESIAN_POINT ( 'NONE',  ( 1.775977784784342036E-14, -6.229291519609259858E-16, 5.086602540378446058 ) ) ;
#49 = DIRECTION ( 'NONE',  ( -3.491481338843133355E-15, 1.224646799147353207E-16, -1.000000000000000000 ) ) ;
#50 = CARTESIAN_POINT ( 'NONE',  ( 6.982962677686266711E-16, -2.449293598294706229E-17, 0.1999999999999999833 ) ) ;
#51 = AXIS2_PLACEMENT_3D ( 'NONE', #179, #272, #156 ) ;
#52 = DIRECTION ( 'NONE',  ( 0.0000000000000000000, 1.000000000000000000, 0.0000000000000000000 ) ) ;
#53 = VERTEX_POINT ( 'NONE', #54 ) ;
#54 = CARTESIAN_POINT ( 'NONE',  ( 3.961887347097082447E-14, 0.4853844939755804222, 11.34729635533384595 ) ) ;
#55 = AXIS2_PLACEMENT_3D ( 'NONE', #50, #254, #95 ) ;
#56 = DIRECTION ( 'NONE',  ( 0.0000000000000000000, 0.0000000000000000000, 1.000000000000000000 ) ) ;
#57 = CALENDAR_DATE ( 2021, 1, 12 ) ;
#58 = ORIENTED_EDGE ( 'NONE', *, *, #233, .F. ) ;
#59 = CC_DESIGN_PERSON_AND_ORGANIZATION_ASSIGNMENT ( #208, #1, ( #36 ) ) ;
#60 = ADVANCED_FACE ( 'NONE', ( #250 ), #44, .F. ) ;
#61 = FACE_OUTER_BOUND ( 'NONE', #104, .T. ) ;
#62 = ORIENTED_EDGE ( 'NONE', *, *, #280, .F. ) ;
#63 = EDGE_LOOP ( 'NONE', ( #41 ) ) ;
#64 = PERSON_AND_ORGANIZATION ( #6, #23 ) ;
#65 = DIRECTION ( 'NONE',  ( -4.275831445896958607E-31, -1.000000000000000000, -1.224646799147353207E-16 ) ) ;
#66 = MANIFOLD_SOLID_BREP ( 'Corps-Déplacer/Copier1[2]', #45 ) ;
#67 = CARTESIAN_POINT ( 'NONE',  ( 3.961887347097082447E-14, -1.389643016053602117E-15, 11.34729635533384595 ) ) ;
#68 = CIRCLE ( 'NONE', #37, 1.500000000000003331 ) ;
#69 = SECURITY_CLASSIFICATION ( '', '', #196 ) ;
#70 = DIRECTION ( 'NONE',  ( -3.491481338843133355E-15, 1.224646799147353207E-16, -1.000000000000000000 ) ) ;
#71 = CC_DESIGN_PERSON_AND_ORGANIZATION_ASSIGNMENT ( #42, #248, ( #274 ) ) ;
#72 = FACE_OUTER_BOUND ( 'NONE', #285, .T. ) ;
#73 = DIRECTION ( 'NONE',  ( -3.491481338843133355E-15, 1.224646799147353207E-16, -1.000000000000000000 ) ) ;
#74 = UNCERTAINTY_MEASURE_WITH_UNIT (LENGTH_MEASURE( 1.000000000000000082E-05 ), #27, 'distance_accuracy_value', 'NONE');
#75 = FACE_OUTER_BOUND ( 'NONE', #63, .T. ) ;
#76 = AXIS2_PLACEMENT_3D ( 'NONE', #295, #301, #136 ) ;
#77 = CARTESIAN_POINT ( 'NONE',  ( 0.0000000000000000000, 0.0000000000000000000, 0.0000000000000000000 ) ) ;
#78 = CARTESIAN_POINT ( 'NONE',  ( 1.745740669421566678E-14, 3.786893451221183207E-33, 5.000000000000000000 ) ) ;
#79 = AXIS2_PLACEMENT_3D ( 'NONE', #77, #56, #121 ) ;
#80 = COORDINATED_UNIVERSAL_TIME_OFFSET ( 1, 0, .AHEAD. ) ;
#81 = EDGE_LOOP ( 'NONE', ( #147 ) ) ;
#82 = CONICAL_SURFACE ( 'NONE', #299, 1.499999999999997558, 0.1745329251994260922 ) ;
#83 = CIRCLE ( 'NONE', #218, 0.4550000000000005707 ) ;
#84 = ADVANCED_FACE ( 'NONE', ( #242, #127 ), #229, .F. ) ;
#85 = APPROVAL_DATE_TIME ( #221, #120 ) ;
#86 = ORIENTED_EDGE ( 'NONE', *, *, #241, .F. ) ;
#87 = DATE_TIME_ROLE ( 'classification_date' ) ;
#88 = EDGE_LOOP ( 'NONE', ( #290 ) ) ;
#89 = EDGE_LOOP ( 'NONE', ( #11 ) ) ;
#90 = FACE_OUTER_BOUND ( 'NONE', #12, .T. ) ;
#91 = DIRECTION ( 'NONE',  ( -3.491481338843133355E-15, 1.224646799147353207E-16, -1.000000000000000000 ) ) ;
#92 = EDGE_CURVE ( 'NONE', #141, #141, #291, .T. ) ;
#93 = CIRCLE ( 'NONE', #267, 0.4549999999999999600 ) ;
#94 = CARTESIAN_POINT ( 'NONE',  ( -7.191964797267738032E-32, 2.522601673555755480E-33, -2.059860586180512572E-17 ) ) ;
#95 = DIRECTION ( 'NONE',  ( -3.813722662152945561E-31, -1.000000000000000000, -1.073467497510401352E-16 ) ) ;
#96 = FACE_BOUND ( 'NONE', #268, .T. ) ;
#97 = COORDINATED_UNIVERSAL_TIME_OFFSET ( 1, 0, .AHEAD. ) ;
#98 = CARTESIAN_POINT ( 'NONE',  ( 1.745740669421566678E-14, 0.5049999999999995604, 5.000000000000000000 ) ) ;
#99 = CARTESIAN_POINT ( 'NONE',  ( 5.970945229873614972E-14, 1.499999999999995559, 17.10146682855257083 ) ) ;
#100 = VERTEX_POINT ( 'NONE', #185 ) ;
#101 = APPLICATION_CONTEXT ( 'configuration controlled 3d designs of mechanical parts and assemblies' ) ;
#102 = CALENDAR_DATE ( 2021, 1, 12 ) ;
#103 = ADVANCED_FACE ( 'NONE', ( #96, #117 ), #139, .T. ) ;
#104 = EDGE_LOOP ( 'NONE', ( #287 ) ) ;
#105 = EDGE_LOOP ( 'NONE', ( #108 ) ) ;
#106 = SHAPE_DEFINITION_REPRESENTATION ( #30, #170 ) ;
#107 = EDGE_LOOP ( 'NONE', ( #129 ) ) ;
#108 = ORIENTED_EDGE ( 'NONE', *, *, #92, .T. ) ;
#109 = AXIS2_PLACEMENT_3D ( 'NONE', #94, #234, #275 ) ;
#110 = DIRECTION ( 'NONE',  ( 3.491481338843133355E-15, -1.224646799147353207E-16, 1.000000000000000000 ) ) ;
#111 = CARTESIAN_POINT ( 'NONE',  ( 1.745740669421566678E-14, -6.123233995736766282E-16, 5.000000000000000000 ) ) ;
#112 = ADVANCED_FACE ( 'NONE', ( #113 ), #203, .F. ) ;
#113 = FACE_OUTER_BOUND ( 'NONE', #269, .T. ) ;
#114 = AXIS2_PLACEMENT_3D ( 'NONE', #289, #35, #65 ) ;
#115 = LOCAL_TIME ( 11, 39, 47.00000000000000000, #80 ) ;
#116 = FACE_BOUND ( 'NONE', #15, .T. ) ;
#117 = FACE_OUTER_BOUND ( 'NONE', #105, .T. ) ;
#118 = VERTEX_POINT ( 'NONE', #164 ) ;
#119 = APPLICATION_PROTOCOL_DEFINITION ( 'international standard', 'config_control_design', 1994, #302 ) ;
#120 = APPROVAL ( #145, 'UNSPECIFIED' ) ;
#121 = DIRECTION ( 'NONE',  ( 1.000000000000000000, 0.0000000000000000000, 0.0000000000000000000 ) ) ;
#122 = AXIS2_PLACEMENT_3D ( 'NONE', #174, #133, #276 ) ;
#123 = CIRCLE ( 'NONE', #109, 0.3895299461620761461 ) ;
#124 = APPROVAL_PERSON_ORGANIZATION ( #10, #186, #9 ) ;
#125 = CC_DESIGN_DATE_AND_TIME_ASSIGNMENT ( #33, #87, ( #69 ) ) ;
#126 = PERSON_AND_ORGANIZATION ( #6, #23 ) ;
#127 = FACE_OUTER_BOUND ( 'NONE', #107, .T. ) ;
#128 = EDGE_LOOP ( 'NONE', ( #192 ) ) ;
#129 = ORIENTED_EDGE ( 'NONE', *, *, #193, .T. ) ;
#130 = EDGE_LOOP ( 'NONE', ( #175 ) ) ;
#131 = CARTESIAN_POINT ( 'NONE',  ( -3.595982398633869016E-32, 1.261300836777877740E-33, -1.029930293090256286E-17 ) ) ;
#132 = FACE_OUTER_BOUND ( 'NONE', #152, .T. ) ;
#133 = DIRECTION ( 'NONE',  ( -3.491481338843133355E-15, 1.224646799147353207E-16, -1.000000000000000000 ) ) ;
#134 = CARTESIAN_POINT ( 'NONE',  ( 3.840629472727446691E-14, -1.347111479062088405E-15, 11.00000000000000000 ) ) ;
#135 = AXIS2_PLACEMENT_3D ( 'NONE', #111, #202, #207 ) ;
#136 = DIRECTION ( 'NONE',  ( 4.275831445896958607E-31, 1.000000000000000000, 1.224646799147353207E-16 ) ) ;
#137 = FACE_OUTER_BOUND ( 'NONE', #89, .T. ) ;
#138 = VERTEX_POINT ( 'NONE', #99 ) ;
#139 = CONICAL_SURFACE ( 'NONE', #55, 0.5049999999999995604, 0.5235987755982923764 ) ;
#140 = CC_DESIGN_DATE_AND_TIME_ASSIGNMENT ( #198, #288, ( #36 ) ) ;
#141 = VERTEX_POINT ( 'NONE', #168 ) ;
#142 = EDGE_CURVE ( 'NONE', #236, #236, #83, .T. ) ;
#143 = MECHANICAL_CONTEXT ( 'NONE', #302, 'mechanical' ) ;
#144 = DATE_AND_TIME ( #57, #115 ) ;
#145 = APPROVAL_STATUS ( 'not_yet_approved' ) ;
#146 = ORIENTED_EDGE ( 'NONE', *, *, #142, .T. ) ;
#147 = ORIENTED_EDGE ( 'NONE', *, *, #233, .T. ) ;
#148 = ADVANCED_FACE ( 'NONE', ( #183, #116 ), #191, .T. ) ;
#149 = EDGE_LOOP ( 'NONE', ( #146 ) ) ;
#150 = AXIS2_PLACEMENT_3D ( 'NONE', #131, #110, #263 ) ;
#151 = COORDINATED_UNIVERSAL_TIME_OFFSET ( 1, 0, .AHEAD. ) ;
#152 = EDGE_LOOP ( 'NONE', ( #34 ) ) ;
#153 = DIRECTION ( 'NONE',  ( -3.491481338843133355E-15, 1.224646799147353207E-16, -1.000000000000000000 ) ) ;
#154 = CC_DESIGN_PERSON_AND_ORGANIZATION_ASSIGNMENT ( #64, #217, ( #274 ) ) ;
#155 = DIRECTION ( 'NONE',  ( 0.0000000000000000000, 1.000000000000000000, 0.0000000000000000000 ) ) ;
#156 = DIRECTION ( 'NONE',  ( 0.0000000000000000000, 1.000000000000000000, 0.0000000000000000000 ) ) ;
#157 = CARTESIAN_POINT ( 'NONE',  ( 1.775977784784342036E-14, -6.229291519609259858E-16, 5.086602540378446058 ) ) ;
#158 = DIRECTION ( 'NONE',  ( 0.0000000000000000000, 1.000000000000000000, 0.0000000000000000000 ) ) ;
#159 = MANIFOLD_SOLID_BREP ( 'Corps-Déplacer/Copier1[1]', #169 ) ;
#160 = AXIS2_PLACEMENT_3D ( 'NONE', #180, #91, #258 ) ;
#161 = CARTESIAN_POINT ( 'NONE',  ( 5.970945229873614972E-14, -2.094325661231154159E-15, 17.10146682855257083 ) ) ;
#162 = CARTESIAN_POINT ( 'NONE',  ( 1.745740669421566678E-14, -6.123233995736766282E-16, 5.000000000000000000 ) ) ;
#163 = CC_DESIGN_PERSON_AND_ORGANIZATION_ASSIGNMENT ( #209, #261, ( #211 ) ) ;
#164 = CARTESIAN_POINT ( 'NONE',  ( 1.316288464743861212E-13, 1.499999999999998668, 37.69999999999999574 ) ) ;
#165 = CIRCLE ( 'NONE', #256, 0.4853844939755818655 ) ;
#166 = VERTEX_POINT ( 'NONE', #187 ) ;
#167 = APPROVAL_PERSON_ORGANIZATION ( #189, #297, #284 ) ;
#168 = CARTESIAN_POINT ( 'NONE',  ( 6.982962677686268683E-16, 0.5049999999999995604, 0.2000000000000000389 ) ) ;
#169 = CLOSED_SHELL ( 'NONE', ( #281, #271, #205, #84, #13, #216, #148, #112 ) ) ;
#170 = ADVANCED_BREP_SHAPE_REPRESENTATION ( '200715', ( #159, #66, #79 ), #246 ) ;
#171 = DIRECTION ( 'NONE',  ( 0.0000000000000000000, -1.000000000000000000, 0.0000000000000000000 ) ) ;
#172 = EDGE_CURVE ( 'NONE', #166, #166, #93, .T. ) ;
#173 = COORDINATED_UNIVERSAL_TIME_OFFSET ( 1, 0, .AHEAD. ) ;
#174 = CARTESIAN_POINT ( 'NONE',  ( 3.840629472727446691E-14, -1.301042606982605321E-15, 11.00000000000000000 ) ) ;
#175 = ORIENTED_EDGE ( 'NONE', *, *, #26, .F. ) ;
#176 = APPROVAL_PERSON_ORGANIZATION ( #126, #120, #214 ) ;
#177 = CALENDAR_DATE ( 2021, 1, 12 ) ;
#178 = EDGE_LOOP ( 'NONE', ( #199 ) ) ;
#179 = CARTESIAN_POINT ( 'NONE',  ( 1.326762908760390423E-13, -4.653657836759941941E-15, 38.00000000000000000 ) ) ;
#180 = CARTESIAN_POINT ( 'NONE',  ( 0.0000000000000000000, 0.0000000000000000000, 0.0000000000000000000 ) ) ;
#181 = LOCAL_TIME ( 11, 39, 47.00000000000000000, #265 ) ;
#182 = DIRECTION ( 'NONE',  ( 0.0000000000000000000, 1.000000000000000000, 0.0000000000000000000 ) ) ;
#183 = FACE_OUTER_BOUND ( 'NONE', #130, .T. ) ;
#184 = DIRECTION ( 'NONE',  ( -3.491481338843133355E-15, 1.224646799147353207E-16, -1.000000000000000000 ) ) ;
#185 = CARTESIAN_POINT ( 'NONE',  ( 1.326762908760390423E-13, 1.199999999999998845, 38.00000000000000000 ) ) ;
#186 = APPROVAL ( #213, 'UNSPECIFIED' ) ;
#187 = CARTESIAN_POINT ( 'NONE',  ( 1.775977784784342036E-14, 0.4549999999999993494, 5.086602540378446058 ) ) ;
#188 = VERTEX_POINT ( 'NONE', #279 ) ;
#189 = PERSON_AND_ORGANIZATION ( #6, #23 ) ;
#190 = CALENDAR_DATE ( 2021, 1, 12 ) ;
#191 = CONICAL_SURFACE ( 'NONE', #2, 1.200000000000003286, 0.7853981633974453924 ) ;
#192 = ORIENTED_EDGE ( 'NONE', *, *, #280, .T. ) ;
#193 = EDGE_CURVE ( 'NONE', #53, #53, #165, .T. ) ;
#194 = PERSON_AND_ORGANIZATION_ROLE ( 'classification_officer' ) ;
#195 = CARTESIAN_POINT ( 'NONE',  ( 1.316288464743861212E-13, -4.616918432785521081E-15, 37.69999999999999574 ) ) ;
#196 = SECURITY_CLASSIFICATION_LEVEL ( 'unclassified' ) ;
#197 = PLANE ( 'NONE',  #114 ) ;
#198 = DATE_AND_TIME ( #102, #257 ) ;
#199 = ORIENTED_EDGE ( 'NONE', *, *, #172, .T. ) ;
#200 = CONICAL_SURFACE ( 'NONE', #238, 0.4549999999999999600, 0.5235987755982914882 ) ;
#201 = FACE_OUTER_BOUND ( 'NONE', #81, .T. ) ;
#202 = DIRECTION ( 'NONE',  ( -3.491481338843133355E-15, 1.224646799147353207E-16, -1.000000000000000000 ) ) ;
#203 = PLANE ( 'NONE',  #76 ) ;
#204 = CIRCLE ( 'NONE', #38, 1.499999999999997558 ) ;
#205 = ADVANCED_FACE ( 'NONE', ( #132, #21 ), #255, .T. ) ;
#206 = CARTESIAN_POINT ( 'NONE',  ( 0.0000000000000000000, 0.0000000000000000000, 0.0000000000000000000 ) ) ;
#207 = DIRECTION ( 'NONE',  ( 0.0000000000000000000, 1.000000000000000000, 0.0000000000000000000 ) ) ;
#208 = PERSON_AND_ORGANIZATION ( #6, #23 ) ;
#209 = PERSON_AND_ORGANIZATION ( #6, #23 ) ;
#210 =( NAMED_UNIT ( * ) SI_UNIT ( $, .STERADIAN. ) SOLID_ANGLE_UNIT ( ) );
#211 = PRODUCT ( '200715', '200715', '', ( #143 ) ) ;
#212 = APPROVAL_STATUS ( 'not_yet_approved' ) ;
#213 = APPROVAL_STATUS ( 'not_yet_approved' ) ;
#214 = APPROVAL_ROLE ( '' ) ;
#215 = ORIENTED_EDGE ( 'NONE', *, *, #241, .T. ) ;
#216 = ADVANCED_FACE ( 'NONE', ( #90, #137 ), #232, .T. ) ;
#217 = PERSON_AND_ORGANIZATION_ROLE ( 'design_supplier' ) ;
#218 = AXIS2_PLACEMENT_3D ( 'NONE', #134, #73, #182 ) ;
#219 = EDGE_LOOP ( 'NONE', ( #266 ) ) ;
#220 = DIRECTION ( 'NONE',  ( 0.0000000000000000000, 1.000000000000000000, 0.0000000000000000000 ) ) ;
#221 = DATE_AND_TIME ( #243, #181 ) ;
#222 = DIRECTION ( 'NONE',  ( 3.491481338843133355E-15, -1.224646799147353207E-16, 1.000000000000000000 ) ) ;
#223 = EDGE_LOOP ( 'NONE', ( #43 ) ) ;
#224 = DIRECTION ( 'NONE',  ( -3.491481338843133355E-15, 1.224646799147353207E-16, -1.000000000000000000 ) ) ;
#225 = DIRECTION ( 'NONE',  ( -3.491481338843133355E-15, 1.224646799147353207E-16, -1.000000000000000000 ) ) ;
#226 = EDGE_CURVE ( 'NONE', #138, #138, #204, .T. ) ;
#227 = CC_DESIGN_PERSON_AND_ORGANIZATION_ASSIGNMENT ( #40, #194, ( #69 ) ) ;
#228 = DIRECTION ( 'NONE',  ( 0.0000000000000000000, 1.000000000000000000, 0.0000000000000000000 ) ) ;
#229 = TOROIDAL_SURFACE ( 'NONE', #122, 2.455000000000000515, 2.000000000000000000 ) ;
#230 = DESIGN_CONTEXT ( 'detailed design', #101, 'design' ) ;
#231 = AXIS2_PLACEMENT_3D ( 'NONE', #162, #8, #278 ) ;
#232 = CYLINDRICAL_SURFACE ( 'NONE', #293, 1.500000000000000444 ) ;
#233 = EDGE_CURVE ( 'NONE', #5, #5, #245, .T. ) ;
#234 = DIRECTION ( 'NONE',  ( -3.491481338843133355E-15, 1.224646799147353207E-16, -1.000000000000000000 ) ) ;
#235 = CARTESIAN_POINT ( 'NONE',  ( 1.745740669421566678E-14, 0.5049999999999995604, 5.000000000000000000 ) ) ;
#236 = VERTEX_POINT ( 'NONE', #3 ) ;
#237 = VERTEX_POINT ( 'NONE', #235 ) ;
#238 = AXIS2_PLACEMENT_3D ( 'NONE', #48, #225, #52 ) ;
#239 = APPROVAL_DATE_TIME ( #144, #297 ) ;
#240 = ADVANCED_FACE ( 'NONE', ( #75, #201 ), #298, .T. ) ;
#241 = EDGE_CURVE ( 'NONE', #100, #100, #7, .T. ) ;
#242 = FACE_OUTER_BOUND ( 'NONE', #88, .T. ) ;
#243 = CALENDAR_DATE ( 2021, 1, 12 ) ;
#244 = FACE_BOUND ( 'NONE', #219, .T. ) ;
#245 = CIRCLE ( 'NONE', #135, 0.5050000000000002265 ) ;
#246 =( GEOMETRIC_REPRESENTATION_CONTEXT ( 3 ) GLOBAL_UNCERTAINTY_ASSIGNED_CONTEXT ( ( #74 ) ) GLOBAL_UNIT_ASSIGNED_CONTEXT ( ( #27, #283, #210 ) ) REPRESENTATION_CONTEXT ( 'NONE', 'WORKASPACE' ) );
#247 = ORIENTED_EDGE ( 'NONE', *, *, #296, .F. ) ;
#248 = PERSON_AND_ORGANIZATION_ROLE ( 'creator' ) ;
#249 = ORIENTED_EDGE ( 'NONE', *, *, #226, .F. ) ;
#250 = FACE_OUTER_BOUND ( 'NONE', #128, .T. ) ;
#251 = DIRECTION ( 'NONE',  ( -3.491481338843133355E-15, 1.224646799147353207E-16, -1.000000000000000000 ) ) ;
#252 = LOCAL_TIME ( 11, 39, 47.00000000000000000, #173 ) ;
#253 = FACE_BOUND ( 'NONE', #178, .T. ) ;
#254 = DIRECTION ( 'NONE',  ( 3.491481338843133355E-15, -1.224646799147353207E-16, 1.000000000000000000 ) ) ;
#255 = CYLINDRICAL_SURFACE ( 'NONE', #29, 0.4550000000000002931 ) ;
#256 = AXIS2_PLACEMENT_3D ( 'NONE', #67, #22, #155 ) ;
#257 = LOCAL_TIME ( 11, 39, 47.00000000000000000, #97 ) ;
#258 = DIRECTION ( 'NONE',  ( 4.275831445896959482E-31, 1.000000000000000000, 1.224646799147353454E-16 ) ) ;
#259 = PLANE ( 'NONE',  #17 ) ;
#260 = DIRECTION ( 'NONE',  ( -4.275831445896958607E-31, -1.000000000000000000, -1.224646799147353207E-16 ) ) ;
#261 = PERSON_AND_ORGANIZATION_ROLE ( 'design_owner' ) ;
#262 = CIRCLE ( 'NONE', #231, 0.5050000000000002265 ) ;
#263 = DIRECTION ( 'NONE',  ( -4.275831445896958607E-31, -1.000000000000000000, -1.224646799147353207E-16 ) ) ;
#264 = CARTESIAN_POINT ( 'NONE',  ( 6.982962677686266711E-16, -2.449293598294706229E-17, 0.1999999999999999833 ) ) ;
#265 = COORDINATED_UNIVERSAL_TIME_OFFSET ( 1, 0, .AHEAD. ) ;
#266 = ORIENTED_EDGE ( 'NONE', *, *, #193, .F. ) ;
#267 = AXIS2_PLACEMENT_3D ( 'NONE', #157, #251, #158 ) ;
#268 = EDGE_LOOP ( 'NONE', ( #62 ) ) ;
#269 = EDGE_LOOP ( 'NONE', ( #86 ) ) ;
#270 = DIRECTION ( 'NONE',  ( 0.0000000000000000000, 1.000000000000000000, 0.0000000000000000000 ) ) ;
#271 = ADVANCED_FACE ( 'NONE', ( #72, #253 ), #200, .T. ) ;
#272 = DIRECTION ( 'NONE',  ( -3.491481338843133355E-15, 1.224646799147353207E-16, -1.000000000000000000 ) ) ;
#273 = AXIS2_PLACEMENT_3D ( 'NONE', #264, #49, #303 ) ;
#274 = PRODUCT_DEFINITION_FORMATION_WITH_SPECIFIED_SOURCE ( 'ANY', '', #211, .NOT_KNOWN. ) ;
#275 = DIRECTION ( 'NONE',  ( 4.275831445896958607E-31, 1.000000000000000000, 1.224646799147353207E-16 ) ) ;
#276 = DIRECTION ( 'NONE',  ( 4.275831445896958607E-31, 1.000000000000000000, 1.224646799147353207E-16 ) ) ;
#277 = DIRECTION ( 'NONE',  ( 4.275831445896958607E-31, 1.000000000000000000, 1.224646799147353207E-16 ) ) ;
#278 = DIRECTION ( 'NONE',  ( 0.0000000000000000000, 1.000000000000000000, 0.0000000000000000000 ) ) ;
#279 = CARTESIAN_POINT ( 'NONE',  ( 9.463679131915807877E-32, 0.3895299461620761461, 2.710505431213761085E-17 ) ) ;
#280 = EDGE_CURVE ( 'NONE', #188, #188, #123, .T. ) ;
#281 = ADVANCED_FACE ( 'NONE', ( #25 ), #259, .F. ) ;
#282 = DIRECTION ( 'NONE',  ( 3.491481338843133355E-15, -1.224646799147353207E-16, 1.000000000000000000 ) ) ;
#283 =( NAMED_UNIT ( * ) PLANE_ANGLE_UNIT ( ) SI_UNIT ( $, .RADIAN. ) );
#284 = APPROVAL_ROLE ( '' ) ;
#285 = EDGE_LOOP ( 'NONE', ( #247 ) ) ;
#286 = LOCAL_TIME ( 11, 39, 47.00000000000000000, #151 ) ;
#287 = ORIENTED_EDGE ( 'NONE', *, *, #226, .T. ) ;
#288 = DATE_TIME_ROLE ( 'creation_date' ) ;
#289 = CARTESIAN_POINT ( 'NONE',  ( 1.745740669421566678E-14, 3.786893451221183207E-33, 5.000000000000000000 ) ) ;
#290 = ORIENTED_EDGE ( 'NONE', *, *, #142, .F. ) ;
#291 = CIRCLE ( 'NONE', #273, 0.5049999999999995604 ) ;
#292 = DATE_AND_TIME ( #190, #252 ) ;
#293 = AXIS2_PLACEMENT_3D ( 'NONE', #24, #224, #277 ) ;
#294 = CARTESIAN_POINT ( 'NONE',  ( 5.970945229873614972E-14, -2.094325661231154159E-15, 17.10146682855257083 ) ) ;
#295 = CARTESIAN_POINT ( 'NONE',  ( 1.326762908760390423E-13, 8.998558695971103225E-33, 38.00000000000000000 ) ) ;
#296 = EDGE_CURVE ( 'NONE', #237, #237, #262, .T. ) ;
#297 = APPROVAL ( #212, 'UNSPECIFIED' ) ;
#298 = CYLINDRICAL_SURFACE ( 'NONE', #160, 0.5049999999999998934 ) ;
#299 = AXIS2_PLACEMENT_3D ( 'NONE', #294, #222, #171 ) ;
#300 = CARTESIAN_POINT ( 'NONE',  ( 1.326762908760390423E-13, -4.653657836759941941E-15, 38.00000000000000000 ) ) ;
#301 = DIRECTION ( 'NONE',  ( -3.491481338843133355E-15, 1.224646799147353207E-16, -1.000000000000000000 ) ) ;
#302 = APPLICATION_CONTEXT ( 'configuration controlled 3d designs of mechanical parts and assemblies' ) ;
#303 = DIRECTION ( 'NONE',  ( 3.813722662152945561E-31, 1.000000000000000000, 1.073467497510401352E-16 ) ) ;
ENDSEC;
END-ISO-10303-21;
