ISO-10303-21;
HEADER;
FILE_DESCRIPTION (( 'STEP AP203' ),
    '1' );
FILE_NAME ('200714.step',
    '2021-12-01T14:03:40',
    ( '' ),
    ( '' ),
    'SwSTEP 2.0',
    'SolidWorks 2019',
    '' );
FILE_SCHEMA (( 'CONFIG_CONTROL_DESIGN' ));
ENDSEC;

DATA;
#1 = CIRCLE ( 'NONE', #276, 0.8700000000000001066 ) ;
#2 = DIRECTION ( 'NONE',  ( -3.491481338843133355E-15, 1.224646799147353207E-16, -1.000000000000000000 ) ) ;
#3 = MANIFOLD_SOLID_BREP ( 'Corps-Déplacer/Copier1[2]', #115 ) ;
#4 = DIRECTION ( 'NONE',  ( -3.491481338843133355E-15, 1.224646799147353207E-16, -1.000000000000000000 ) ) ;
#5 = FACE_OUTER_BOUND ( 'NONE', #12, .T. ) ;
#6 = APPROVAL_ROLE ( '' ) ;
#7 = VERTEX_POINT ( 'NONE', #100 ) ;
#8 = DATE_AND_TIME ( #103, #101 ) ;
#9 =( NAMED_UNIT ( * ) SI_UNIT ( $, .STERADIAN. ) SOLID_ANGLE_UNIT ( ) );
#10 = CARTESIAN_POINT ( 'NONE',  ( 2.883896417162833076E-14, -1.011534696479630540E-15, 8.259807621135339062 ) ) ;
#11 = PERSON_AND_ORGANIZATION_ROLE ( 'design_owner' ) ;
#12 = EDGE_LOOP ( 'NONE', ( #40 ) ) ;
#13 = AXIS2_PLACEMENT_3D ( 'NONE', #187, #74, #81 ) ;
#14 = CC_DESIGN_DATE_AND_TIME_ASSIGNMENT ( #8, #214, ( #154 ) ) ;
#15 = DIRECTION ( 'NONE',  ( -3.491481338843133355E-15, 1.224646799147353207E-16, -1.000000000000000000 ) ) ;
#16 = EDGE_CURVE ( 'NONE', #258, #258, #87, .T. ) ;
#17 = DIRECTION ( 'NONE',  ( -3.491481338843133355E-15, 1.224646799147353207E-16, -1.000000000000000000 ) ) ;
#18 = ORIENTED_EDGE ( 'NONE', *, *, #21, .F. ) ;
#19 = DIRECTION ( 'NONE',  ( 0.0000000000000000000, 1.000000000000000000, 0.0000000000000000000 ) ) ;
#20 = AXIS2_PLACEMENT_3D ( 'NONE', #111, #2, #130 ) ;
#21 = EDGE_CURVE ( 'NONE', #171, #171, #283, .T. ) ;
#22 = FACE_OUTER_BOUND ( 'NONE', #249, .T. ) ;
#23 = DIRECTION ( 'NONE',  ( -3.491481338843133355E-15, 1.224646799147353207E-16, -1.000000000000000000 ) ) ;
#24 = CARTESIAN_POINT ( 'NONE',  ( 1.735266225405037467E-13, -6.086494591762345225E-15, 49.70000000000000284 ) ) ;
#25 = EDGE_CURVE ( 'NONE', #28, #28, #260, .T. ) ;
#26 = AXIS2_PLACEMENT_3D ( 'NONE', #284, #184, #112 ) ;
#27 = FACE_OUTER_BOUND ( 'NONE', #88, .T. ) ;
#28 = VERTEX_POINT ( 'NONE', #169 ) ;
#29 = CALENDAR_DATE ( 2021, 1, 12 ) ;
#30 = VERTEX_POINT ( 'NONE', #118 ) ;
#31 = CARTESIAN_POINT ( 'NONE',  ( 0.0000000000000000000, 0.0000000000000000000, 0.0000000000000000000 ) ) ;
#32 = AXIS2_PLACEMENT_3D ( 'NONE', #64, #133, #255 ) ;
#33 = APPROVAL_PERSON_ORGANIZATION ( #217, #125, #75 ) ;
#34 = DATE_TIME_ROLE ( 'classification_date' ) ;
#35 = VERTEX_POINT ( 'NONE', #190 ) ;
#36 = PERSON_AND_ORGANIZATION ( #183, #191 ) ;
#37 = EDGE_CURVE ( 'NONE', #35, #35, #297, .T. ) ;
#38 = AXIS2_PLACEMENT_3D ( 'NONE', #24, #72, #161 ) ;
#39 = EDGE_LOOP ( 'NONE', ( #287 ) ) ;
#40 = ORIENTED_EDGE ( 'NONE', *, *, #91, .T. ) ;
#41 = CARTESIAN_POINT ( 'NONE',  ( 1.745740669421566678E-13, -6.123233995736766085E-15, 50.00000000000000000 ) ) ;
#42 = ADVANCED_FACE ( 'NONE', ( #280, #48 ), #147, .T. ) ;
#43 = EDGE_LOOP ( 'NONE', ( #252 ) ) ;
#44 =( GEOMETRIC_REPRESENTATION_CONTEXT ( 3 ) GLOBAL_UNCERTAINTY_ASSIGNED_CONTEXT ( ( #210 ) ) GLOBAL_UNIT_ASSIGNED_CONTEXT ( ( #145, #119, #9 ) ) REPRESENTATION_CONTEXT ( 'NONE', 'WORKASPACE' ) );
#45 = DESIGN_CONTEXT ( 'detailed design', #232, 'design' ) ;
#46 = FACE_OUTER_BOUND ( 'NONE', #63, .T. ) ;
#47 = ORIENTED_EDGE ( 'NONE', *, *, #37, .T. ) ;
#48 = FACE_OUTER_BOUND ( 'NONE', #177, .T. ) ;
#49 = CYLINDRICAL_SURFACE ( 'NONE', #237, 0.8699999999999994404 ) ;
#50 = AXIS2_PLACEMENT_3D ( 'NONE', #215, #94, #142 ) ;
#51 = DIRECTION ( 'NONE',  ( 0.0000000000000000000, 1.000000000000000000, 0.0000000000000000000 ) ) ;
#52 = CC_DESIGN_PERSON_AND_ORGANIZATION_ASSIGNMENT ( #194, #265, ( #269 ) ) ;
#53 = CARTESIAN_POINT ( 'NONE',  ( 1.735266225405037467E-13, 1.499999999999995559, 49.70000000000000284 ) ) ;
#54 = CARTESIAN_POINT ( 'NONE',  ( 6.405924284287273902E-14, -2.246895775456748746E-15, 18.34729635533384240 ) ) ;
#55 = CC_DESIGN_APPROVAL ( #139, ( #71 ) ) ;
#56 = CARTESIAN_POINT ( 'NONE',  ( 2.793185071074506684E-14, 1.019999999999999130, 8.000000000000000000 ) ) ;
#57 = DIRECTION ( 'NONE',  ( 1.000000000000000000, 0.0000000000000000000, 0.0000000000000000000 ) ) ;
#58 = FACE_OUTER_BOUND ( 'NONE', #86, .T. ) ;
#59 = CALENDAR_DATE ( 2021, 1, 12 ) ;
#60 = PERSON_AND_ORGANIZATION_ROLE ( 'creator' ) ;
#61 = CIRCLE ( 'NONE', #50, 0.8756624327025946952 ) ;
#62 = LOCAL_TIME ( 15, 3, 40.00000000000000000, #79 ) ;
#63 = EDGE_LOOP ( 'NONE', ( #123 ) ) ;
#64 = CARTESIAN_POINT ( 'NONE',  ( -9.257245696786111218E-32, 3.247004698368536052E-33, -2.651380545500324864E-17 ) ) ;
#65 = PRODUCT_RELATED_PRODUCT_CATEGORY ( 'detail', '', ( #163 ) ) ;
#66 = DIRECTION ( 'NONE',  ( 0.0000000000000000000, -1.000000000000000000, 0.0000000000000000000 ) ) ;
#67 = EDGE_LOOP ( 'NONE', ( #89 ) ) ;
#68 = CARTESIAN_POINT ( 'NONE',  ( 8.728703347107829444E-16, -3.061616997868381785E-17, 0.2499999999999998890 ) ) ;
#69 = CIRCLE ( 'NONE', #38, 1.500000000000001554 ) ;
#70 = ADVANCED_FACE ( 'NONE', ( #301 ), #303, .F. ) ;
#71 = SECURITY_CLASSIFICATION ( '', '', #146 ) ;
#72 = DIRECTION ( 'NONE',  ( -3.491481338843133355E-15, 1.224646799147353207E-16, -1.000000000000000000 ) ) ;
#73 = FACE_OUTER_BOUND ( 'NONE', #39, .T. ) ;
#74 = DIRECTION ( 'NONE',  ( -3.491481338843133355E-15, 1.224646799147353207E-16, -1.000000000000000000 ) ) ;
#75 = APPROVAL_ROLE ( '' ) ;
#76 = AXIS2_PLACEMENT_3D ( 'NONE', #68, #178, #158 ) ;
#77 = ORIENTED_EDGE ( 'NONE', *, *, #207, .F. ) ;
#78 = VERTEX_POINT ( 'NONE', #53 ) ;
#79 = COORDINATED_UNIVERSAL_TIME_OFFSET ( 1, 0, .AHEAD. ) ;
#80 = ADVANCED_FACE ( 'NONE', ( #204, #22 ), #268, .T. ) ;
#81 = DIRECTION ( 'NONE',  ( 0.0000000000000000000, 1.000000000000000000, 0.0000000000000000000 ) ) ;
#82 = PERSON_AND_ORGANIZATION_ROLE ( 'creator' ) ;
#83 = ADVANCED_FACE ( 'NONE', ( #46 ), #109, .F. ) ;
#84 = DIRECTION ( 'NONE',  ( -3.491481338843133355E-15, 1.224646799147353207E-16, -1.000000000000000000 ) ) ;
#85 = DATE_AND_TIME ( #250, #185 ) ;
#86 = EDGE_LOOP ( 'NONE', ( #47 ) ) ;
#87 = CIRCLE ( 'NONE', #132, 1.200000000000001732 ) ;
#88 = EDGE_LOOP ( 'NONE', ( #240 ) ) ;
#89 = ORIENTED_EDGE ( 'NONE', *, *, #120, .T. ) ;
#90 = CARTESIAN_POINT ( 'NONE',  ( 7.593233419482378568E-14, -2.663347759844807185E-15, 21.74788487341112031 ) ) ;
#91 = EDGE_CURVE ( 'NONE', #78, #78, #69, .T. ) ;
#92 = LOCAL_TIME ( 15, 3, 40.00000000000000000, #261 ) ;
#93 = CARTESIAN_POINT ( 'NONE',  ( 0.0000000000000000000, 0.0000000000000000000, 0.0000000000000000000 ) ) ;
#94 = DIRECTION ( 'NONE',  ( -3.491481338843133355E-15, 1.224646799147353207E-16, -1.000000000000000000 ) ) ;
#95 = APPROVAL_STATUS ( 'not_yet_approved' ) ;
#96 = FACE_BOUND ( 'NONE', #220, .T. ) ;
#97 = SHAPE_DEFINITION_REPRESENTATION ( #224, #143 ) ;
#98 = AXIS2_PLACEMENT_3D ( 'NONE', #126, #15, #281 ) ;
#99 = MANIFOLD_SOLID_BREP ( 'Corps-Déplacer/Copier1[1]', #222 ) ;
#100 = CARTESIAN_POINT ( 'NONE',  ( 6.405924284287273902E-14, 0.9003844939755785148, 18.34729635533384240 ) ) ;
#101 = LOCAL_TIME ( 15, 3, 40.00000000000000000, #172 ) ;
#102 = DIRECTION ( 'NONE',  ( -3.491481338843133355E-15, 1.224646799147353207E-16, -1.000000000000000000 ) ) ;
#103 = CALENDAR_DATE ( 2021, 1, 12 ) ;
#104 = EDGE_CURVE ( 'NONE', #136, #136, #196, .T. ) ;
#105 = AXIS2_PLACEMENT_3D ( 'NONE', #234, #17, #19 ) ;
#106 = ORIENTED_EDGE ( 'NONE', *, *, #207, .T. ) ;
#107 = CC_DESIGN_SECURITY_CLASSIFICATION ( #71, ( #269 ) ) ;
#108 = CARTESIAN_POINT ( 'NONE',  ( 2.793185071074506684E-14, 7.648774891575461210E-33, 8.000000000000000000 ) ) ;
#109 = PLANE ( 'NONE',  #165 ) ;
#110 = CONICAL_SURFACE ( 'NONE', #13, 1.200000000000001732, 0.7853981633974453924 ) ;
#111 = CARTESIAN_POINT ( 'NONE',  ( 0.0000000000000000000, 0.0000000000000000000, 0.0000000000000000000 ) ) ;
#112 = DIRECTION ( 'NONE',  ( -3.776333224288700756E-31, -1.000000000000000000, -1.062943306358338526E-16 ) ) ;
#113 = CARTESIAN_POINT ( 'NONE',  ( 2.793185071074506684E-14, -9.797174393178825657E-16, 8.000000000000000000 ) ) ;
#114 = DIRECTION ( 'NONE',  ( 4.275831445896958607E-31, 1.000000000000000000, 1.224646799147353207E-16 ) ) ;
#115 = CLOSED_SHELL ( 'NONE', ( #70, #42, #181, #186 ) ) ;
#116 = DIRECTION ( 'NONE',  ( 0.0000000000000000000, 1.000000000000000000, 0.0000000000000000000 ) ) ;
#117 = DATE_AND_TIME ( #29, #229 ) ;
#118 = CARTESIAN_POINT ( 'NONE',  ( 1.892735826383161356E-31, 0.8756624327025946952, 5.421010862427522170E-17 ) ) ;
#119 =( NAMED_UNIT ( * ) PLANE_ANGLE_UNIT ( ) SI_UNIT ( $, .RADIAN. ) );
#120 = EDGE_CURVE ( 'NONE', #122, #122, #1, .T. ) ;
#121 = PERSON_AND_ORGANIZATION ( #183, #191 ) ;
#122 = VERTEX_POINT ( 'NONE', #243 ) ;
#123 = ORIENTED_EDGE ( 'NONE', *, *, #16, .F. ) ;
#124 = APPROVAL_STATUS ( 'not_yet_approved' ) ;
#125 = APPROVAL ( #295, 'UNSPECIFIED' ) ;
#126 = CARTESIAN_POINT ( 'NONE',  ( 7.593233419482378568E-14, -2.663347759844807185E-15, 21.74788487341112031 ) ) ;
#127 = ADVANCED_FACE ( 'NONE', ( #230, #278 ), #49, .T. ) ;
#128 = DIRECTION ( 'NONE',  ( 0.0000000000000000000, 1.000000000000000000, 0.0000000000000000000 ) ) ;
#129 = EDGE_LOOP ( 'NONE', ( #235 ) ) ;
#130 = DIRECTION ( 'NONE',  ( 4.275831445896959482E-31, 1.000000000000000000, 1.224646799147353207E-16 ) ) ;
#131 = FACE_OUTER_BOUND ( 'NONE', #285, .T. ) ;
#132 = AXIS2_PLACEMENT_3D ( 'NONE', #41, #84, #151 ) ;
#133 = DIRECTION ( 'NONE',  ( 3.491481338843133355E-15, -1.224646799147353207E-16, 1.000000000000000000 ) ) ;
#134 = DIRECTION ( 'NONE',  ( 0.0000000000000000000, 1.000000000000000000, 0.0000000000000000000 ) ) ;
#135 = ORIENTED_EDGE ( 'NONE', *, *, #104, .F. ) ;
#136 = VERTEX_POINT ( 'NONE', #236 ) ;
#137 = ORIENTED_EDGE ( 'NONE', *, *, #104, .T. ) ;
#138 = AXIS2_PLACEMENT_3D ( 'NONE', #90, #180, #66 ) ;
#139 = APPROVAL ( #95, 'UNSPECIFIED' ) ;
#140 = CIRCLE ( 'NONE', #175, 0.9003844939755807353 ) ;
#141 = DIRECTION ( 'NONE',  ( -4.275831445896958607E-31, -1.000000000000000000, -1.224646799147353207E-16 ) ) ;
#142 = DIRECTION ( 'NONE',  ( 4.275831445896958607E-31, 1.000000000000000000, 1.224646799147353207E-16 ) ) ;
#143 = ADVANCED_BREP_SHAPE_REPRESENTATION ( '200714', ( #99, #3, #239 ), #44 ) ;
#144 = COORDINATED_UNIVERSAL_TIME_OFFSET ( 1, 0, .AHEAD. ) ;
#145 =( LENGTH_UNIT ( ) NAMED_UNIT ( * ) SI_UNIT ( .MILLI., .METRE. ) );
#146 = SECURITY_CLASSIFICATION_LEVEL ( 'unclassified' ) ;
#147 = CONICAL_SURFACE ( 'NONE', #26, 1.019999999999999130, 0.5235987755982931535 ) ;
#148 = CARTESIAN_POINT ( 'NONE',  ( 0.0000000000000000000, 0.0000000000000000000, 0.0000000000000000000 ) ) ;
#149 = MECHANICAL_CONTEXT ( 'NONE', #272, 'mechanical' ) ;
#150 = APPROVAL_DATE_TIME ( #85, #125 ) ;
#151 = DIRECTION ( 'NONE',  ( 0.0000000000000000000, 1.000000000000000000, 0.0000000000000000000 ) ) ;
#152 = EDGE_CURVE ( 'NONE', #212, #212, #291, .T. ) ;
#153 = AXIS2_PLACEMENT_3D ( 'NONE', #108, #300, #206 ) ;
#154 = PRODUCT_DEFINITION ( 'UNKNOWN', '', #269, #45 ) ;
#155 = CARTESIAN_POINT ( 'NONE',  ( 1.745740669421566678E-13, 8.998558695971067645E-33, 50.00000000000000000 ) ) ;
#156 = AXIS2_PLACEMENT_3D ( 'NONE', #10, #241, #116 ) ;
#157 = EDGE_LOOP ( 'NONE', ( #201 ) ) ;
#158 = DIRECTION ( 'NONE',  ( 3.776333224288700756E-31, 1.000000000000000000, 1.062943306358338526E-16 ) ) ;
#159 = DIRECTION ( 'NONE',  ( -3.491481338843133355E-15, 1.224646799147353207E-16, -1.000000000000000000 ) ) ;
#160 = AXIS2_PLACEMENT_3D ( 'NONE', #148, #102, #292 ) ;
#161 = DIRECTION ( 'NONE',  ( 0.0000000000000000000, 1.000000000000000000, 0.0000000000000000000 ) ) ;
#162 = CARTESIAN_POINT ( 'NONE',  ( 7.593233419482378568E-14, 1.499999999999994005, 21.74788487341112031 ) ) ;
#163 = PRODUCT ( '200714', '200714', '', ( #149 ) ) ;
#164 = PLANE ( 'NONE',  #198 ) ;
#165 = AXIS2_PLACEMENT_3D ( 'NONE', #155, #159, #114 ) ;
#166 = COORDINATED_UNIVERSAL_TIME_OFFSET ( 1, 0, .AHEAD. ) ;
#167 = EDGE_LOOP ( 'NONE', ( #106 ) ) ;
#168 = CC_DESIGN_APPROVAL ( #294, ( #269 ) ) ;
#169 = CARTESIAN_POINT ( 'NONE',  ( 2.883896417162833076E-14, 0.8699999999999979972, 8.259807621135339062 ) ) ;
#170 = APPROVAL_DATE_TIME ( #117, #139 ) ;
#171 = VERTEX_POINT ( 'NONE', #162 ) ;
#172 = COORDINATED_UNIVERSAL_TIME_OFFSET ( 1, 0, .AHEAD. ) ;
#173 = DIRECTION ( 'NONE',  ( 4.275831445896958607E-31, 1.000000000000000000, 1.224646799147353207E-16 ) ) ;
#174 = DATE_AND_TIME ( #59, #92 ) ;
#175 = AXIS2_PLACEMENT_3D ( 'NONE', #54, #188, #288 ) ;
#176 = PERSON_AND_ORGANIZATION ( #183, #191 ) ;
#177 = EDGE_LOOP ( 'NONE', ( #137 ) ) ;
#178 = DIRECTION ( 'NONE',  ( -3.491481338843133355E-15, 1.224646799147353207E-16, -1.000000000000000000 ) ) ;
#179 = ORIENTED_EDGE ( 'NONE', *, *, #25, .T. ) ;
#180 = DIRECTION ( 'NONE',  ( 3.491481338843133355E-15, -1.224646799147353207E-16, 1.000000000000000000 ) ) ;
#181 = ADVANCED_FACE ( 'NONE', ( #131, #209 ), #228, .T. ) ;
#182 = ORIENTED_EDGE ( 'NONE', *, *, #25, .F. ) ;
#183 = PERSON ( 'UNSPECIFIED', 'UNSPECIFIED', 'UNSPECIFIED', ('UNSPECIFIED'), ('UNSPECIFIED'), ('UNSPECIFIED') ) ;
#184 = DIRECTION ( 'NONE',  ( 3.491481338843133355E-15, -1.224646799147353207E-16, 1.000000000000000000 ) ) ;
#185 = LOCAL_TIME ( 15, 3, 40.00000000000000000, #166 ) ;
#186 = ADVANCED_FACE ( 'NONE', ( #282 ), #253, .T. ) ;
#187 = CARTESIAN_POINT ( 'NONE',  ( 1.745740669421566678E-13, -6.123233995736766085E-15, 50.00000000000000000 ) ) ;
#188 = DIRECTION ( 'NONE',  ( -3.491481338843133355E-15, 1.224646799147353207E-16, -1.000000000000000000 ) ) ;
#189 = APPROVAL_ROLE ( '' ) ;
#190 = CARTESIAN_POINT ( 'NONE',  ( 2.793185071074506684E-14, 1.019999999999999130, 8.000000000000000000 ) ) ;
#191 = ORGANIZATION ( 'UNSPECIFIED', 'UNSPECIFIED', '' ) ;
#192 = FACE_OUTER_BOUND ( 'NONE', #43, .T. ) ;
#193 = CALENDAR_DATE ( 2021, 1, 12 ) ;
#194 = PERSON_AND_ORGANIZATION ( #183, #191 ) ;
#195 = APPLICATION_PROTOCOL_DEFINITION ( 'international standard', 'config_control_design', 1994, #272 ) ;
#196 = CIRCLE ( 'NONE', #76, 1.019999999999999130 ) ;
#197 = ADVANCED_FACE ( 'NONE', ( #266, #73 ), #227, .F. ) ;
#198 = AXIS2_PLACEMENT_3D ( 'NONE', #213, #263, #141 ) ;
#199 = AXIS2_PLACEMENT_3D ( 'NONE', #218, #4, #173 ) ;
#200 = CC_DESIGN_APPROVAL ( #125, ( #154 ) ) ;
#201 = ORIENTED_EDGE ( 'NONE', *, *, #120, .F. ) ;
#202 = CARTESIAN_POINT ( 'NONE',  ( 6.284666409917638777E-14, -2.204364238465235033E-15, 17.99999999999999645 ) ) ;
#203 = ORIENTED_EDGE ( 'NONE', *, *, #242, .F. ) ;
#204 = FACE_BOUND ( 'NONE', #302, .T. ) ;
#205 = ADVANCED_FACE ( 'NONE', ( #192, #286 ), #257, .T. ) ;
#206 = DIRECTION ( 'NONE',  ( -4.275831445896958607E-31, -1.000000000000000000, -1.224646799147353207E-16 ) ) ;
#207 = EDGE_CURVE ( 'NONE', #30, #30, #61, .T. ) ;
#208 = DIRECTION ( 'NONE',  ( -3.491481338843133355E-15, 1.224646799147353207E-16, -1.000000000000000000 ) ) ;
#209 = FACE_OUTER_BOUND ( 'NONE', #129, .T. ) ;
#210 = UNCERTAINTY_MEASURE_WITH_UNIT (LENGTH_MEASURE( 1.000000000000000082E-05 ), #145, 'distance_accuracy_value', 'NONE');
#211 = ORIENTED_EDGE ( 'NONE', *, *, #16, .T. ) ;
#212 = VERTEX_POINT ( 'NONE', #56 ) ;
#213 = CARTESIAN_POINT ( 'NONE',  ( 2.793185071074506684E-14, 7.648774891575461210E-33, 8.000000000000000000 ) ) ;
#214 = DATE_TIME_ROLE ( 'creation_date' ) ;
#215 = CARTESIAN_POINT ( 'NONE',  ( -1.851449139357222244E-31, 6.494009396737072105E-33, -5.302761091000649728E-17 ) ) ;
#216 = CC_DESIGN_DATE_AND_TIME_ASSIGNMENT ( #219, #34, ( #71 ) ) ;
#217 = PERSON_AND_ORGANIZATION ( #183, #191 ) ;
#218 = CARTESIAN_POINT ( 'NONE',  ( 6.284666409917640040E-14, -2.168404344971008868E-15, 18.00000000000000000 ) ) ;
#219 = DATE_AND_TIME ( #193, #62 ) ;
#220 = EDGE_LOOP ( 'NONE', ( #211 ) ) ;
#221 = PERSON_AND_ORGANIZATION ( #183, #191 ) ;
#222 = CLOSED_SHELL ( 'NONE', ( #267, #205, #127, #197, #80, #275, #298, #83 ) ) ;
#223 = EDGE_LOOP ( 'NONE', ( #182 ) ) ;
#224 = PRODUCT_DEFINITION_SHAPE ( 'NONE', 'NONE',  #154 ) ;
#225 = AXIS2_PLACEMENT_3D ( 'NONE', #233, #23, #134 ) ;
#226 = EDGE_LOOP ( 'NONE', ( #238 ) ) ;
#227 = TOROIDAL_SURFACE ( 'NONE', #199, 2.870000000000000107, 2.000000000000000444 ) ;
#228 = CYLINDRICAL_SURFACE ( 'NONE', #20, 1.019999999999999574 ) ;
#229 = LOCAL_TIME ( 15, 3, 40.00000000000000000, #144 ) ;
#230 = FACE_OUTER_BOUND ( 'NONE', #223, .T. ) ;
#231 = CC_DESIGN_PERSON_AND_ORGANIZATION_ASSIGNMENT ( #221, #244, ( #71 ) ) ;
#232 = APPLICATION_CONTEXT ( 'configuration controlled 3d designs of mechanical parts and assemblies' ) ;
#233 = CARTESIAN_POINT ( 'NONE',  ( 2.883896417162833076E-14, -1.011534696479630540E-15, 8.259807621135339062 ) ) ;
#234 = CARTESIAN_POINT ( 'NONE',  ( 2.793185071074506684E-14, -9.797174393178825657E-16, 8.000000000000000000 ) ) ;
#235 = ORIENTED_EDGE ( 'NONE', *, *, #152, .T. ) ;
#236 = CARTESIAN_POINT ( 'NONE',  ( 8.728703347107833388E-16, 1.019999999999999130, 0.2500000000000000000 ) ) ;
#237 = AXIS2_PLACEMENT_3D ( 'NONE', #93, #274, #256 ) ;
#238 = ORIENTED_EDGE ( 'NONE', *, *, #152, .F. ) ;
#239 = AXIS2_PLACEMENT_3D ( 'NONE', #31, #248, #57 ) ;
#240 = ORIENTED_EDGE ( 'NONE', *, *, #91, .F. ) ;
#241 = DIRECTION ( 'NONE',  ( -3.491481338843133355E-15, 1.224646799147353207E-16, -1.000000000000000000 ) ) ;
#242 = EDGE_CURVE ( 'NONE', #7, #7, #140, .T. ) ;
#243 = CARTESIAN_POINT ( 'NONE',  ( 6.284666409917638777E-14, 0.8699999999999979972, 17.99999999999999645 ) ) ;
#244 = PERSON_AND_ORGANIZATION_ROLE ( 'classification_officer' ) ;
#245 = PERSON_AND_ORGANIZATION ( #183, #191 ) ;
#246 = APPROVAL_PERSON_ORGANIZATION ( #121, #139, #189 ) ;
#247 = CARTESIAN_POINT ( 'NONE',  ( 1.745740669421566678E-13, 1.199999999999995515, 50.00000000000000000 ) ) ;
#248 = DIRECTION ( 'NONE',  ( 0.0000000000000000000, 0.0000000000000000000, 1.000000000000000000 ) ) ;
#249 = EDGE_LOOP ( 'NONE', ( #277 ) ) ;
#250 = CALENDAR_DATE ( 2021, 1, 12 ) ;
#251 = APPROVAL_PERSON_ORGANIZATION ( #176, #294, #6 ) ;
#252 = ORIENTED_EDGE ( 'NONE', *, *, #37, .F. ) ;
#253 = PLANE ( 'NONE',  #153 ) ;
#254 = DIRECTION ( 'NONE',  ( -3.491481338843133355E-15, 1.224646799147353207E-16, -1.000000000000000000 ) ) ;
#255 = DIRECTION ( 'NONE',  ( -4.275831445896958607E-31, -1.000000000000000000, -1.224646799147353207E-16 ) ) ;
#256 = DIRECTION ( 'NONE',  ( 4.275831445896959482E-31, 1.000000000000000000, 1.224646799147353207E-16 ) ) ;
#257 = CONICAL_SURFACE ( 'NONE', #156, 0.8699999999999988853, 0.5235987755982914882 ) ;
#258 = VERTEX_POINT ( 'NONE', #247 ) ;
#259 = FACE_OUTER_BOUND ( 'NONE', #270, .T. ) ;
#260 = CIRCLE ( 'NONE', #225, 0.8699999999999988853 ) ;
#261 = COORDINATED_UNIVERSAL_TIME_OFFSET ( 1, 0, .AHEAD. ) ;
#262 = CC_DESIGN_PERSON_AND_ORGANIZATION_ASSIGNMENT ( #36, #60, ( #154 ) ) ;
#263 = DIRECTION ( 'NONE',  ( 3.491481338843133355E-15, -1.224646799147353207E-16, 1.000000000000000000 ) ) ;
#264 = PERSON_AND_ORGANIZATION ( #183, #191 ) ;
#265 = PERSON_AND_ORGANIZATION_ROLE ( 'design_supplier' ) ;
#266 = FACE_OUTER_BOUND ( 'NONE', #157, .T. ) ;
#267 = ADVANCED_FACE ( 'NONE', ( #58 ), #164, .F. ) ;
#268 = CONICAL_SURFACE ( 'NONE', #138, 1.499999999999996669, 0.1745329251994261199 ) ;
#269 = PRODUCT_DEFINITION_FORMATION_WITH_SPECIFIED_SOURCE ( 'ANY', '', #163, .NOT_KNOWN. ) ;
#270 = EDGE_LOOP ( 'NONE', ( #18 ) ) ;
#271 = APPROVAL_DATE_TIME ( #174, #294 ) ;
#272 = APPLICATION_CONTEXT ( 'configuration controlled 3d designs of mechanical parts and assemblies' ) ;
#273 = CC_DESIGN_PERSON_AND_ORGANIZATION_ASSIGNMENT ( #245, #11, ( #163 ) ) ;
#274 = DIRECTION ( 'NONE',  ( -3.491481338843133355E-15, 1.224646799147353207E-16, -1.000000000000000000 ) ) ;
#275 = ADVANCED_FACE ( 'NONE', ( #259, #5 ), #290, .T. ) ;
#276 = AXIS2_PLACEMENT_3D ( 'NONE', #202, #254, #128 ) ;
#277 = ORIENTED_EDGE ( 'NONE', *, *, #21, .T. ) ;
#278 = FACE_OUTER_BOUND ( 'NONE', #67, .T. ) ;
#279 = EDGE_LOOP ( 'NONE', ( #179 ) ) ;
#280 = FACE_BOUND ( 'NONE', #299, .T. ) ;
#281 = DIRECTION ( 'NONE',  ( 0.0000000000000000000, 1.000000000000000000, 0.0000000000000000000 ) ) ;
#282 = FACE_OUTER_BOUND ( 'NONE', #226, .T. ) ;
#283 = CIRCLE ( 'NONE', #98, 1.499999999999996669 ) ;
#284 = CARTESIAN_POINT ( 'NONE',  ( 8.728703347107829444E-16, -3.061616997868381785E-17, 0.2499999999999998890 ) ) ;
#285 = EDGE_LOOP ( 'NONE', ( #135 ) ) ;
#286 = FACE_BOUND ( 'NONE', #279, .T. ) ;
#287 = ORIENTED_EDGE ( 'NONE', *, *, #242, .T. ) ;
#288 = DIRECTION ( 'NONE',  ( 0.0000000000000000000, 1.000000000000000000, 0.0000000000000000000 ) ) ;
#289 = CC_DESIGN_PERSON_AND_ORGANIZATION_ASSIGNMENT ( #264, #82, ( #269 ) ) ;
#290 = CYLINDRICAL_SURFACE ( 'NONE', #160, 1.499999999999999112 ) ;
#291 = CIRCLE ( 'NONE', #105, 1.020000000000000240 ) ;
#292 = DIRECTION ( 'NONE',  ( 4.275831445896958607E-31, 1.000000000000000000, 1.224646799147353454E-16 ) ) ;
#293 = APPLICATION_PROTOCOL_DEFINITION ( 'international standard', 'config_control_design', 1994, #232 ) ;
#294 = APPROVAL ( #124, 'UNSPECIFIED' ) ;
#295 = APPROVAL_STATUS ( 'not_yet_approved' ) ;
#296 = AXIS2_PLACEMENT_3D ( 'NONE', #113, #208, #51 ) ;
#297 = CIRCLE ( 'NONE', #296, 1.020000000000000240 ) ;
#298 = ADVANCED_FACE ( 'NONE', ( #27, #96 ), #110, .T. ) ;
#299 = EDGE_LOOP ( 'NONE', ( #77 ) ) ;
#300 = DIRECTION ( 'NONE',  ( 3.491481338843133355E-15, -1.224646799147353207E-16, 1.000000000000000000 ) ) ;
#301 = FACE_OUTER_BOUND ( 'NONE', #167, .T. ) ;
#302 = EDGE_LOOP ( 'NONE', ( #203 ) ) ;
#303 = PLANE ( 'NONE',  #32 ) ;
ENDSEC;
END-ISO-10303-21;
