ISO-10303-21;
HEADER;
FILE_DESCRIPTION (( 'STEP AP203' ),
    '1' );
FILE_NAME ('200713.step',
    '2021-12-01T14:03:40',
    ( '' ),
    ( '' ),
    'SwSTEP 2.0',
    'SolidWorks 2019',
    '' );
FILE_SCHEMA (( 'CONFIG_CONTROL_DESIGN' ));
ENDSEC;

DATA;
#1 = AXIS2_PLACEMENT_3D ( 'NONE', #161, #188, #210 ) ;
#2 = CARTESIAN_POINT ( 'NONE',  ( -3.209706035003264212E-31, 1.125813326922465079E-32, -9.192963454493981930E-17 ) ) ;
#3 = ADVANCED_FACE ( 'NONE', ( #11 ), #105, .F. ) ;
#4 = CALENDAR_DATE ( 2021, 1, 12 ) ;
#5 = LOCAL_TIME ( 15, 3, 40.00000000000000000, #286 ) ;
#6 = CALENDAR_DATE ( 2021, 1, 12 ) ;
#7 = APPROVAL_STATUS ( 'not_yet_approved' ) ;
#8 = APPLICATION_PROTOCOL_DEFINITION ( 'international standard', 'config_control_design', 1994, #207 ) ;
#9 = DATE_AND_TIME ( #6, #249 ) ;
#10 = CIRCLE ( 'NONE', #150, 0.8949999999999991296 ) ;
#11 = FACE_OUTER_BOUND ( 'NONE', #134, .T. ) ;
#12 = EDGE_LOOP ( 'NONE', ( #86 ) ) ;
#13 = DIRECTION ( 'NONE',  ( -3.491481338843133355E-15, 1.224646799147353207E-16, -1.000000000000000000 ) ) ;
#14 = ADVANCED_FACE ( 'NONE', ( #159, #247 ), #39, .T. ) ;
#15 = EDGE_LOOP ( 'NONE', ( #292 ) ) ;
#16 = AXIS2_PLACEMENT_3D ( 'NONE', #250, #301, #163 ) ;
#17 = ORIENTED_EDGE ( 'NONE', *, *, #135, .F. ) ;
#18 = CC_DESIGN_DATE_AND_TIME_ASSIGNMENT ( #53, #151, ( #132 ) ) ;
#19 = DIRECTION ( 'NONE',  ( 0.0000000000000000000, 1.000000000000000000, 0.0000000000000000000 ) ) ;
#20 = CYLINDRICAL_SURFACE ( 'NONE', #172, 1.499999999999999112 ) ;
#21 = CIRCLE ( 'NONE', #280, 0.8950000000000000178 ) ;
#22 = DIRECTION ( 'NONE',  ( 0.0000000000000000000, 1.000000000000000000, 0.0000000000000000000 ) ) ;
#23 = DIRECTION ( 'NONE',  ( -3.491481338843133355E-15, 1.224646799147353207E-16, -1.000000000000000000 ) ) ;
#24 = DIRECTION ( 'NONE',  ( 3.491481338843133355E-15, -1.224646799147353207E-16, 1.000000000000000000 ) ) ;
#25 = APPROVAL_ROLE ( '' ) ;
#26 = EDGE_CURVE ( 'NONE', #52, #52, #300, .T. ) ;
#27 = DIRECTION ( 'NONE',  ( 1.000000000000000000, 0.0000000000000000000, 0.0000000000000000000 ) ) ;
#28 = APPROVAL_STATUS ( 'not_yet_approved' ) ;
#29 = VERTEX_POINT ( 'NONE', #97 ) ;
#30 = DATE_TIME_ROLE ( 'classification_date' ) ;
#31 = AXIS2_PLACEMENT_3D ( 'NONE', #278, #42, #234 ) ;
#32 = VERTEX_POINT ( 'NONE', #145 ) ;
#33 = CC_DESIGN_PERSON_AND_ORGANIZATION_ASSIGNMENT ( #258, #147, ( #274 ) ) ;
#34 = ORIENTED_EDGE ( 'NONE', *, *, #160, .F. ) ;
#35 = LOCAL_TIME ( 15, 3, 40.00000000000000000, #198 ) ;
#36 = DIRECTION ( 'NONE',  ( -3.491481338843133355E-15, 1.224646799147353207E-16, -1.000000000000000000 ) ) ;
#37 = DIRECTION ( 'NONE',  ( -3.491481338843133355E-15, 1.224646799147353207E-16, -1.000000000000000000 ) ) ;
#38 = DIRECTION ( 'NONE',  ( -3.491481338843133355E-15, 1.224646799147353207E-16, -1.000000000000000000 ) ) ;
#39 = CYLINDRICAL_SURFACE ( 'NONE', #90, 0.7949999999999993738 ) ;
#40 = LOCAL_TIME ( 15, 3, 40.00000000000000000, #48 ) ;
#41 = FACE_OUTER_BOUND ( 'NONE', #155, .T. ) ;
#42 = DIRECTION ( 'NONE',  ( -3.491481338843133355E-15, 1.224646799147353207E-16, -1.000000000000000000 ) ) ;
#43 = EDGE_CURVE ( 'NONE', #124, #124, #224, .T. ) ;
#44 = CIRCLE ( 'NONE', #31, 1.500000000000001554 ) ;
#45 = FACE_OUTER_BOUND ( 'NONE', #58, .T. ) ;
#46 = CARTESIAN_POINT ( 'NONE',  ( 7.392594095401939205E-14, -2.592972958386005050E-15, 21.17323100988247120 ) ) ;
#47 = EDGE_CURVE ( 'NONE', #29, #29, #10, .T. ) ;
#48 = COORDINATED_UNIVERSAL_TIME_OFFSET ( 1, 0, .AHEAD. ) ;
#49 = APPLICATION_CONTEXT ( 'configuration controlled 3d designs of mechanical parts and assemblies' ) ;
#50 = AXIS2_PLACEMENT_3D ( 'NONE', #277, #93, #114 ) ;
#51 = CARTESIAN_POINT ( 'NONE',  ( 1.735266225405037467E-13, 1.499999999999995559, 49.70000000000000284 ) ) ;
#52 = VERTEX_POINT ( 'NONE', #174 ) ;
#53 = DATE_AND_TIME ( #262, #5 ) ;
#54 = CONICAL_SURFACE ( 'NONE', #166, 1.499999999999996669, 0.1745329251994259534 ) ;
#55 = ORIENTED_EDGE ( 'NONE', *, *, #47, .F. ) ;
#56 = CC_DESIGN_DATE_AND_TIME_ASSIGNMENT ( #104, #30, ( #59 ) ) ;
#57 = ORIENTED_EDGE ( 'NONE', *, *, #43, .T. ) ;
#58 = EDGE_LOOP ( 'NONE', ( #265 ) ) ;
#59 = SECURITY_CLASSIFICATION ( '', '', #149 ) ;
#60 = EDGE_LOOP ( 'NONE', ( #84 ) ) ;
#61 = CLOSED_SHELL ( 'NONE', ( #185, #293, #199, #85 ) ) ;
#62 = ORIENTED_EDGE ( 'NONE', *, *, #26, .T. ) ;
#63 = CARTESIAN_POINT ( 'NONE',  ( 1.745740669421566678E-13, 8.998558695971067645E-33, 50.00000000000000000 ) ) ;
#64 = FACE_OUTER_BOUND ( 'NONE', #87, .T. ) ;
#65 = CARTESIAN_POINT ( 'NONE',  ( 2.504511167915744066E-14, -8.784642641776459355E-16, 7.173205080756893004 ) ) ;
#66 = DIRECTION ( 'NONE',  ( -3.491481338843133355E-15, 1.224646799147353207E-16, -1.000000000000000000 ) ) ;
#67 = DIRECTION ( 'NONE',  ( -3.491481338843133355E-15, 1.224646799147353207E-16, -1.000000000000000000 ) ) ;
#68 = CARTESIAN_POINT ( 'NONE',  ( 2.444036937190193349E-14, -8.572527594031473190E-16, 7.000000000000000000 ) ) ;
#69 = CARTESIAN_POINT ( 'NONE',  ( 0.0000000000000000000, 0.0000000000000000000, 0.0000000000000000000 ) ) ;
#70 = CARTESIAN_POINT ( 'NONE',  ( 5.935518276033326704E-14, 0.7949999999999979305, 17.00000000000000000 ) ) ;
#71 = MANIFOLD_SOLID_BREP ( 'Corps-Déplacer/Copier1[2]', #61 ) ;
#72 = CARTESIAN_POINT ( 'NONE',  ( 2.444036937190193349E-14, 0.8949999999999991296, 7.000000000000000000 ) ) ;
#73 = EDGE_CURVE ( 'NONE', #169, #169, #78, .T. ) ;
#74 = DATE_AND_TIME ( #4, #40 ) ;
#75 = CALENDAR_DATE ( 2021, 1, 12 ) ;
#76 = PERSON ( 'UNSPECIFIED', 'UNSPECIFIED', 'UNSPECIFIED', ('UNSPECIFIED'), ('UNSPECIFIED'), ('UNSPECIFIED') ) ;
#77 = APPROVAL_ROLE ( '' ) ;
#78 = CIRCLE ( 'NONE', #276, 0.7950000000000000400 ) ;
#79 = PERSON_AND_ORGANIZATION ( #76, #175 ) ;
#80 = EDGE_CURVE ( 'NONE', #282, #282, #21, .T. ) ;
#81 = EDGE_LOOP ( 'NONE', ( #152 ) ) ;
#82 = ORIENTED_EDGE ( 'NONE', *, *, #43, .F. ) ;
#83 = AXIS2_PLACEMENT_3D ( 'NONE', #233, #95, #186 ) ;
#84 = ORIENTED_EDGE ( 'NONE', *, *, #26, .F. ) ;
#85 = ADVANCED_FACE ( 'NONE', ( #294 ), #230, .T. ) ;
#86 = ORIENTED_EDGE ( 'NONE', *, *, #170, .F. ) ;
#87 = EDGE_LOOP ( 'NONE', ( #225 ) ) ;
#88 = CARTESIAN_POINT ( 'NONE',  ( 8.728703347107829444E-16, -3.061616997868381785E-17, 0.2499999999999998890 ) ) ;
#89 = AXIS2_PLACEMENT_3D ( 'NONE', #65, #66, #22 ) ;
#90 = AXIS2_PLACEMENT_3D ( 'NONE', #158, #290, #228 ) ;
#91 = DIRECTION ( 'NONE',  ( 0.0000000000000000000, 1.000000000000000000, 0.0000000000000000000 ) ) ;
#92 = DIRECTION ( 'NONE',  ( 3.491481338843133355E-15, -1.224646799147353207E-16, 1.000000000000000000 ) ) ;
#93 = DIRECTION ( 'NONE',  ( -3.491481338843133355E-15, 1.224646799147353207E-16, -1.000000000000000000 ) ) ;
#94 = AXIS2_PLACEMENT_3D ( 'NONE', #139, #23, #211 ) ;
#95 = DIRECTION ( 'NONE',  ( 3.491481338843133355E-15, -1.224646799147353207E-16, 1.000000000000000000 ) ) ;
#96 =( LENGTH_UNIT ( ) NAMED_UNIT ( * ) SI_UNIT ( .MILLI., .METRE. ) );
#97 = CARTESIAN_POINT ( 'NONE',  ( 8.728703347107833388E-16, 0.8949999999999991296, 0.2500000000000000000 ) ) ;
#98 = PERSON_AND_ORGANIZATION ( #76, #175 ) ;
#99 = AXIS2_PLACEMENT_3D ( 'NONE', #148, #101, #27 ) ;
#100 = AXIS2_PLACEMENT_3D ( 'NONE', #244, #38, #129 ) ;
#101 = DIRECTION ( 'NONE',  ( 0.0000000000000000000, 0.0000000000000000000, 1.000000000000000000 ) ) ;
#102 = APPROVAL_DATE_TIME ( #74, #264 ) ;
#103 = APPROVAL_STATUS ( 'not_yet_approved' ) ;
#104 = DATE_AND_TIME ( #75, #218 ) ;
#105 = PLANE ( 'NONE',  #110 ) ;
#106 = DIRECTION ( 'NONE',  ( 0.0000000000000000000, 1.000000000000000000, 0.0000000000000000000 ) ) ;
#107 = CARTESIAN_POINT ( 'NONE',  ( 2.444036937190193349E-14, -8.572527594031473190E-16, 7.000000000000000000 ) ) ;
#108 = CIRCLE ( 'NONE', #50, 0.7949999999999987077 ) ;
#109 = DIRECTION ( 'NONE',  ( -3.491481338843133355E-15, 1.224646799147353207E-16, -1.000000000000000000 ) ) ;
#110 = AXIS2_PLACEMENT_3D ( 'NONE', #63, #37, #200 ) ;
#111 = CC_DESIGN_PERSON_AND_ORGANIZATION_ASSIGNMENT ( #79, #153, ( #59 ) ) ;
#112 = ORIENTED_EDGE ( 'NONE', *, *, #80, .F. ) ;
#113 = DIRECTION ( 'NONE',  ( -3.491481338843133355E-15, 1.224646799147353207E-16, -1.000000000000000000 ) ) ;
#114 = DIRECTION ( 'NONE',  ( 0.0000000000000000000, 1.000000000000000000, 0.0000000000000000000 ) ) ;
#115 =( GEOMETRIC_REPRESENTATION_CONTEXT ( 3 ) GLOBAL_UNCERTAINTY_ASSIGNED_CONTEXT ( ( #214 ) ) GLOBAL_UNIT_ASSIGNED_CONTEXT ( ( #96, #171, #192 ) ) REPRESENTATION_CONTEXT ( 'NONE', 'WORKASPACE' ) );
#116 = PLANE ( 'NONE',  #83 ) ;
#117 = FACE_OUTER_BOUND ( 'NONE', #243, .T. ) ;
#118 = DIRECTION ( 'NONE',  ( 0.0000000000000000000, -1.000000000000000000, 0.0000000000000000000 ) ) ;
#119 = CONICAL_SURFACE ( 'NONE', #208, 0.8949999999999991296, 0.5235987755982923764 ) ;
#120 = PERSON_AND_ORGANIZATION ( #76, #175 ) ;
#121 = PERSON_AND_ORGANIZATION ( #76, #175 ) ;
#122 = CC_DESIGN_SECURITY_CLASSIFICATION ( #59, ( #193 ) ) ;
#123 = CLOSED_SHELL ( 'NONE', ( #187, #146, #14, #238, #296, #298, #126, #3 ) ) ;
#124 = VERTEX_POINT ( 'NONE', #191 ) ;
#125 = PERSON_AND_ORGANIZATION ( #76, #175 ) ;
#126 = ADVANCED_FACE ( 'NONE', ( #254, #206 ), #227, .T. ) ;
#127 = EDGE_LOOP ( 'NONE', ( #245 ) ) ;
#128 = APPROVAL_PERSON_ORGANIZATION ( #220, #264, #25 ) ;
#129 = DIRECTION ( 'NONE',  ( 0.0000000000000000000, 1.000000000000000000, 0.0000000000000000000 ) ) ;
#130 = DIRECTION ( 'NONE',  ( -3.491481338843133355E-15, 1.224646799147353207E-16, -1.000000000000000000 ) ) ;
#131 = CARTESIAN_POINT ( 'NONE',  ( 5.935518276033326704E-14, -2.081899558550500280E-15, 17.00000000000000000 ) ) ;
#132 = PRODUCT_DEFINITION ( 'UNKNOWN', '', #193, #257 ) ;
#133 = PRODUCT_DEFINITION_SHAPE ( 'NONE', 'NONE',  #132 ) ;
#134 = EDGE_LOOP ( 'NONE', ( #287 ) ) ;
#135 = EDGE_CURVE ( 'NONE', #260, #260, #108, .T. ) ;
#136 = DIRECTION ( 'NONE',  ( 0.0000000000000000000, 1.000000000000000000, 0.0000000000000000000 ) ) ;
#137 = FACE_OUTER_BOUND ( 'NONE', #81, .T. ) ;
#138 = FACE_OUTER_BOUND ( 'NONE', #154, .T. ) ;
#139 = CARTESIAN_POINT ( 'NONE',  ( 5.935518276033326704E-14, -2.168404344971008868E-15, 17.00000000000000000 ) ) ;
#140 = FACE_BOUND ( 'NONE', #271, .T. ) ;
#141 = PRODUCT_RELATED_PRODUCT_CATEGORY ( 'detail', '', ( #274 ) ) ;
#142 = DIRECTION ( 'NONE',  ( -3.491481338843133355E-15, 1.224646799147353207E-16, -1.000000000000000000 ) ) ;
#143 = AXIS2_PLACEMENT_3D ( 'NONE', #2, #279, #297 ) ;
#144 = CIRCLE ( 'NONE', #256, 0.8950000000000000178 ) ;
#145 = CARTESIAN_POINT ( 'NONE',  ( 1.745740669421566678E-13, 1.199999999999995515, 50.00000000000000000 ) ) ;
#146 = ADVANCED_FACE ( 'NONE', ( #209, #252 ), #268, .T. ) ;
#147 = PERSON_AND_ORGANIZATION_ROLE ( 'design_owner' ) ;
#148 = CARTESIAN_POINT ( 'NONE',  ( 0.0000000000000000000, 0.0000000000000000000, 0.0000000000000000000 ) ) ;
#149 = SECURITY_CLASSIFICATION_LEVEL ( 'unclassified' ) ;
#150 = AXIS2_PLACEMENT_3D ( 'NONE', #205, #130, #226 ) ;
#151 = DATE_TIME_ROLE ( 'creation_date' ) ;
#152 = ORIENTED_EDGE ( 'NONE', *, *, #165, .T. ) ;
#153 = PERSON_AND_ORGANIZATION_ROLE ( 'classification_officer' ) ;
#154 = EDGE_LOOP ( 'NONE', ( #181 ) ) ;
#155 = EDGE_LOOP ( 'NONE', ( #62 ) ) ;
#156 = CIRCLE ( 'NONE', #241, 1.200000000000001732 ) ;
#157 = EDGE_LOOP ( 'NONE', ( #112 ) ) ;
#158 = CARTESIAN_POINT ( 'NONE',  ( 0.0000000000000000000, 0.0000000000000000000, 0.0000000000000000000 ) ) ;
#159 = FACE_OUTER_BOUND ( 'NONE', #270, .T. ) ;
#160 = EDGE_CURVE ( 'NONE', #236, #236, #144, .T. ) ;
#161 = CARTESIAN_POINT ( 'NONE',  ( 0.0000000000000000000, 0.0000000000000000000, 0.0000000000000000000 ) ) ;
#162 = CARTESIAN_POINT ( 'NONE',  ( 1.745740669421566678E-13, -6.123233995736766085E-15, 50.00000000000000000 ) ) ;
#163 = DIRECTION ( 'NONE',  ( -4.275831445896958607E-31, -1.000000000000000000, -1.224646799147353207E-16 ) ) ;
#164 = FACE_OUTER_BOUND ( 'NONE', #201, .T. ) ;
#165 = EDGE_CURVE ( 'NONE', #285, #285, #44, .T. ) ;
#166 = AXIS2_PLACEMENT_3D ( 'NONE', #46, #24, #118 ) ;
#167 = DIRECTION ( 'NONE',  ( 3.491481338843133355E-15, -1.224646799147353207E-16, 1.000000000000000000 ) ) ;
#168 = CC_DESIGN_PERSON_AND_ORGANIZATION_ASSIGNMENT ( #125, #289, ( #193 ) ) ;
#169 = VERTEX_POINT ( 'NONE', #70 ) ;
#170 = EDGE_CURVE ( 'NONE', #190, #190, #189, .T. ) ;
#171 =( NAMED_UNIT ( * ) PLANE_ANGLE_UNIT ( ) SI_UNIT ( $, .RADIAN. ) );
#172 = AXIS2_PLACEMENT_3D ( 'NONE', #69, #142, #216 ) ;
#173 = APPROVAL ( #103, 'UNSPECIFIED' ) ;
#174 = CARTESIAN_POINT ( 'NONE',  ( 7.392594095401939205E-14, 1.499999999999994005, 21.17323100988247120 ) ) ;
#175 = ORGANIZATION ( 'UNSPECIFIED', 'UNSPECIFIED', '' ) ;
#176 = APPROVAL_DATE_TIME ( #263, #173 ) ;
#177 = EDGE_LOOP ( 'NONE', ( #223 ) ) ;
#178 = ORIENTED_EDGE ( 'NONE', *, *, #73, .T. ) ;
#179 = APPROVAL_PERSON_ORGANIZATION ( #98, #248, #261 ) ;
#180 = EDGE_LOOP ( 'NONE', ( #34 ) ) ;
#181 = ORIENTED_EDGE ( 'NONE', *, *, #170, .T. ) ;
#182 = EDGE_LOOP ( 'NONE', ( #291 ) ) ;
#183 = DIRECTION ( 'NONE',  ( -4.275831445896958607E-31, -1.000000000000000000, -1.224646799147353207E-16 ) ) ;
#184 = DIRECTION ( 'NONE',  ( -3.491481338843133355E-15, 1.224646799147353207E-16, -1.000000000000000000 ) ) ;
#185 = ADVANCED_FACE ( 'NONE', ( #138 ), #232, .F. ) ;
#186 = DIRECTION ( 'NONE',  ( -4.275831445896958607E-31, -1.000000000000000000, -1.224646799147353207E-16 ) ) ;
#187 = ADVANCED_FACE ( 'NONE', ( #45 ), #116, .F. ) ;
#188 = DIRECTION ( 'NONE',  ( -3.491481338843133355E-15, 1.224646799147353207E-16, -1.000000000000000000 ) ) ;
#189 = CIRCLE ( 'NONE', #143, 0.7506624327025948062 ) ;
#190 = VERTEX_POINT ( 'NONE', #222 ) ;
#191 = CARTESIAN_POINT ( 'NONE',  ( 6.056776150402963091E-14, 0.8253844939755793364, 17.34729635533384595 ) ) ;
#192 =( NAMED_UNIT ( * ) SI_UNIT ( $, .STERADIAN. ) SOLID_ANGLE_UNIT ( ) );
#193 = PRODUCT_DEFINITION_FORMATION_WITH_SPECIFIED_SOURCE ( 'ANY', '', #274, .NOT_KNOWN. ) ;
#194 = CARTESIAN_POINT ( 'NONE',  ( 2.504511167915744066E-14, 0.7949999999999978195, 7.173205080756893004 ) ) ;
#195 = EDGE_LOOP ( 'NONE', ( #55 ) ) ;
#196 = COORDINATED_UNIVERSAL_TIME_OFFSET ( 1, 0, .AHEAD. ) ;
#197 = PERSON_AND_ORGANIZATION_ROLE ( 'creator' ) ;
#198 = COORDINATED_UNIVERSAL_TIME_OFFSET ( 1, 0, .AHEAD. ) ;
#199 = ADVANCED_FACE ( 'NONE', ( #251, #117 ), #212, .T. ) ;
#200 = DIRECTION ( 'NONE',  ( 4.275831445896958607E-31, 1.000000000000000000, 1.224646799147353207E-16 ) ) ;
#201 = EDGE_LOOP ( 'NONE', ( #57 ) ) ;
#202 = ORIENTED_EDGE ( 'NONE', *, *, #80, .T. ) ;
#203 = AXIS2_PLACEMENT_3D ( 'NONE', #162, #113, #91 ) ;
#204 = DIRECTION ( 'NONE',  ( 0.0000000000000000000, 1.000000000000000000, 0.0000000000000000000 ) ) ;
#205 = CARTESIAN_POINT ( 'NONE',  ( 8.728703347107829444E-16, -3.061616997868381785E-17, 0.2499999999999998890 ) ) ;
#206 = FACE_BOUND ( 'NONE', #15, .T. ) ;
#207 = APPLICATION_CONTEXT ( 'configuration controlled 3d designs of mechanical parts and assemblies' ) ;
#208 = AXIS2_PLACEMENT_3D ( 'NONE', #88, #167, #255 ) ;
#209 = FACE_OUTER_BOUND ( 'NONE', #180, .T. ) ;
#210 = DIRECTION ( 'NONE',  ( 4.275831445896958607E-31, 1.000000000000000000, 1.224646799147353207E-16 ) ) ;
#211 = DIRECTION ( 'NONE',  ( 4.275831445896958607E-31, 1.000000000000000000, 1.224646799147353207E-16 ) ) ;
#212 = CYLINDRICAL_SURFACE ( 'NONE', #1, 0.8949999999999995737 ) ;
#213 = CC_DESIGN_APPROVAL ( #173, ( #193 ) ) ;
#214 = UNCERTAINTY_MEASURE_WITH_UNIT (LENGTH_MEASURE( 1.000000000000000082E-05 ), #96, 'distance_accuracy_value', 'NONE');
#215 = PERSON_AND_ORGANIZATION ( #76, #175 ) ;
#216 = DIRECTION ( 'NONE',  ( 4.275831445896958607E-31, 1.000000000000000000, 1.224646799147353454E-16 ) ) ;
#217 = CARTESIAN_POINT ( 'NONE',  ( 2.444036937190193349E-14, 0.8949999999999991296, 7.000000000000000000 ) ) ;
#218 = LOCAL_TIME ( 15, 3, 40.00000000000000000, #196 ) ;
#219 = PERSON_AND_ORGANIZATION_ROLE ( 'creator' ) ;
#220 = PERSON_AND_ORGANIZATION ( #76, #175 ) ;
#221 = CC_DESIGN_PERSON_AND_ORGANIZATION_ASSIGNMENT ( #121, #219, ( #193 ) ) ;
#222 = CARTESIAN_POINT ( 'NONE',  ( 0.0000000000000000000, 0.7506624327025948062, 0.0000000000000000000 ) ) ;
#223 = ORIENTED_EDGE ( 'NONE', *, *, #165, .F. ) ;
#224 = CIRCLE ( 'NONE', #269, 0.8253844939755815568 ) ;
#225 = ORIENTED_EDGE ( 'NONE', *, *, #73, .F. ) ;
#226 = DIRECTION ( 'NONE',  ( 4.303754065669805295E-31, 1.000000000000000000, 1.211399075402799519E-16 ) ) ;
#227 = CONICAL_SURFACE ( 'NONE', #203, 1.200000000000001732, 0.7853981633974453924 ) ;
#228 = DIRECTION ( 'NONE',  ( 4.275831445896958607E-31, 1.000000000000000000, 1.224646799147353207E-16 ) ) ;
#229 = FACE_OUTER_BOUND ( 'NONE', #60, .T. ) ;
#230 = PLANE ( 'NONE',  #16 ) ;
#231 = TOROIDAL_SURFACE ( 'NONE', #94, 2.795000000000000373, 2.000000000000000000 ) ;
#232 = PLANE ( 'NONE',  #275 ) ;
#233 = CARTESIAN_POINT ( 'NONE',  ( 2.444036937190193349E-14, 6.711425027411800205E-33, 7.000000000000000000 ) ) ;
#234 = DIRECTION ( 'NONE',  ( 0.0000000000000000000, 1.000000000000000000, 0.0000000000000000000 ) ) ;
#235 = EDGE_CURVE ( 'NONE', #32, #32, #156, .T. ) ;
#236 = VERTEX_POINT ( 'NONE', #217 ) ;
#237 = APPLICATION_PROTOCOL_DEFINITION ( 'international standard', 'config_control_design', 1994, #49 ) ;
#238 = ADVANCED_FACE ( 'NONE', ( #64, #164 ), #231, .F. ) ;
#239 = ADVANCED_BREP_SHAPE_REPRESENTATION ( '200713', ( #266, #71, #99 ), #115 ) ;
#240 = MECHANICAL_CONTEXT ( 'NONE', #207, 'mechanical' ) ;
#241 = AXIS2_PLACEMENT_3D ( 'NONE', #273, #67, #136 ) ;
#242 = APPROVAL_DATE_TIME ( #9, #248 ) ;
#243 = EDGE_LOOP ( 'NONE', ( #202 ) ) ;
#244 = CARTESIAN_POINT ( 'NONE',  ( 7.392594095401939205E-14, -2.592972958386005050E-15, 21.17323100988247120 ) ) ;
#245 = ORIENTED_EDGE ( 'NONE', *, *, #47, .T. ) ;
#246 = CARTESIAN_POINT ( 'NONE',  ( 6.056776150402963091E-14, -2.124431095542013992E-15, 17.34729635533384595 ) ) ;
#247 = FACE_OUTER_BOUND ( 'NONE', #267, .T. ) ;
#248 = APPROVAL ( #28, 'UNSPECIFIED' ) ;
#249 = LOCAL_TIME ( 15, 3, 40.00000000000000000, #259 ) ;
#250 = CARTESIAN_POINT ( 'NONE',  ( 2.444036937190193349E-14, 6.711425027411800205E-33, 7.000000000000000000 ) ) ;
#251 = FACE_OUTER_BOUND ( 'NONE', #195, .T. ) ;
#252 = FACE_BOUND ( 'NONE', #182, .T. ) ;
#253 = CC_DESIGN_APPROVAL ( #248, ( #59 ) ) ;
#254 = FACE_OUTER_BOUND ( 'NONE', #177, .T. ) ;
#255 = DIRECTION ( 'NONE',  ( -4.303754065669805295E-31, -1.000000000000000000, -1.211399075402799519E-16 ) ) ;
#256 = AXIS2_PLACEMENT_3D ( 'NONE', #68, #184, #19 ) ;
#257 = DESIGN_CONTEXT ( 'detailed design', #49, 'design' ) ;
#258 = PERSON_AND_ORGANIZATION ( #76, #175 ) ;
#259 = COORDINATED_UNIVERSAL_TIME_OFFSET ( 1, 0, .AHEAD. ) ;
#260 = VERTEX_POINT ( 'NONE', #194 ) ;
#261 = APPROVAL_ROLE ( '' ) ;
#262 = CALENDAR_DATE ( 2021, 1, 12 ) ;
#263 = DATE_AND_TIME ( #288, #35 ) ;
#264 = APPROVAL ( #7, 'UNSPECIFIED' ) ;
#265 = ORIENTED_EDGE ( 'NONE', *, *, #160, .T. ) ;
#266 = MANIFOLD_SOLID_BREP ( 'Corps-Déplacer/Copier1[1]', #123 ) ;
#267 = EDGE_LOOP ( 'NONE', ( #178 ) ) ;
#268 = CONICAL_SURFACE ( 'NONE', #89, 0.7949999999999987077, 0.5235987755982921543 ) ;
#269 = AXIS2_PLACEMENT_3D ( 'NONE', #246, #36, #106 ) ;
#270 = EDGE_LOOP ( 'NONE', ( #17 ) ) ;
#271 = EDGE_LOOP ( 'NONE', ( #82 ) ) ;
#272 = CC_DESIGN_PERSON_AND_ORGANIZATION_ASSIGNMENT ( #120, #197, ( #132 ) ) ;
#273 = CARTESIAN_POINT ( 'NONE',  ( 1.745740669421566678E-13, -6.123233995736766085E-15, 50.00000000000000000 ) ) ;
#274 = PRODUCT ( '200713', '200713', '', ( #240 ) ) ;
#275 = AXIS2_PLACEMENT_3D ( 'NONE', #302, #92, #183 ) ;
#276 = AXIS2_PLACEMENT_3D ( 'NONE', #131, #13, #295 ) ;
#277 = CARTESIAN_POINT ( 'NONE',  ( 2.504511167915744066E-14, -8.784642641776459355E-16, 7.173205080756893004 ) ) ;
#278 = CARTESIAN_POINT ( 'NONE',  ( 1.735266225405037467E-13, -6.086494591762345225E-15, 49.70000000000000284 ) ) ;
#279 = DIRECTION ( 'NONE',  ( -3.491481338843133355E-15, 1.224646799147353207E-16, -1.000000000000000000 ) ) ;
#280 = AXIS2_PLACEMENT_3D ( 'NONE', #107, #109, #204 ) ;
#281 = FACE_OUTER_BOUND ( 'NONE', #127, .T. ) ;
#282 = VERTEX_POINT ( 'NONE', #72 ) ;
#283 = APPROVAL_PERSON_ORGANIZATION ( #215, #173, #77 ) ;
#284 = SHAPE_DEFINITION_REPRESENTATION ( #133, #239 ) ;
#285 = VERTEX_POINT ( 'NONE', #51 ) ;
#286 = COORDINATED_UNIVERSAL_TIME_OFFSET ( 1, 0, .AHEAD. ) ;
#287 = ORIENTED_EDGE ( 'NONE', *, *, #235, .F. ) ;
#288 = CALENDAR_DATE ( 2021, 1, 12 ) ;
#289 = PERSON_AND_ORGANIZATION_ROLE ( 'design_supplier' ) ;
#290 = DIRECTION ( 'NONE',  ( -3.491481338843133355E-15, 1.224646799147353207E-16, -1.000000000000000000 ) ) ;
#291 = ORIENTED_EDGE ( 'NONE', *, *, #135, .T. ) ;
#292 = ORIENTED_EDGE ( 'NONE', *, *, #235, .T. ) ;
#293 = ADVANCED_FACE ( 'NONE', ( #303, #281 ), #119, .T. ) ;
#294 = FACE_OUTER_BOUND ( 'NONE', #157, .T. ) ;
#295 = DIRECTION ( 'NONE',  ( 0.0000000000000000000, 1.000000000000000000, 0.0000000000000000000 ) ) ;
#296 = ADVANCED_FACE ( 'NONE', ( #140, #41 ), #54, .T. ) ;
#297 = DIRECTION ( 'NONE',  ( 4.275831445896958607E-31, 1.000000000000000000, 1.224646799147353207E-16 ) ) ;
#298 = ADVANCED_FACE ( 'NONE', ( #229, #137 ), #20, .T. ) ;
#299 = CC_DESIGN_APPROVAL ( #264, ( #132 ) ) ;
#300 = CIRCLE ( 'NONE', #100, 1.499999999999996669 ) ;
#301 = DIRECTION ( 'NONE',  ( 3.491481338843133355E-15, -1.224646799147353207E-16, 1.000000000000000000 ) ) ;
#302 = CARTESIAN_POINT ( 'NONE',  ( -1.604853017501632106E-31, 5.629066634612325394E-33, -4.596481727246990965E-17 ) ) ;
#303 = FACE_BOUND ( 'NONE', #12, .T. ) ;
ENDSEC;
END-ISO-10303-21;
