ISO-10303-21;
HEADER;
FILE_DESCRIPTION (( 'STEP AP203' ),
    '1' );
FILE_NAME ('200712.step',
    '2021-12-01T14:03:39',
    ( '' ),
    ( '' ),
    'SwSTEP 2.0',
    'SolidWorks 2019',
    '' );
FILE_SCHEMA (( 'CONFIG_CONTROL_DESIGN' ));
ENDSEC;

DATA;
#1 = MANIFOLD_SOLID_BREP ( 'Corps-Déplacer/Copier1[1]', #218 ) ;
#2 = EDGE_LOOP ( 'NONE', ( #120 ) ) ;
#3 = APPROVAL_PERSON_ORGANIZATION ( #137, #276, #89 ) ;
#4 = CARTESIAN_POINT ( 'NONE',  ( 2.793185071074506684E-14, 7.348822935043088868E-33, 8.000000000000000000 ) ) ;
#5 = DIRECTION ( 'NONE',  ( 3.491481338843133355E-15, -1.224646799147353207E-16, 1.000000000000000000 ) ) ;
#6 = DIRECTION ( 'NONE',  ( 3.491481338843133355E-15, -1.224646799147353207E-16, 1.000000000000000000 ) ) ;
#7 = DIRECTION ( 'NONE',  ( -3.491481338843133355E-15, 1.224646799147353207E-16, -1.000000000000000000 ) ) ;
#8 = DIRECTION ( 'NONE',  ( 0.0000000000000000000, 1.000000000000000000, 0.0000000000000000000 ) ) ;
#9 = CIRCLE ( 'NONE', #181, 0.9800000000000002043 ) ;
#10 = DIRECTION ( 'NONE',  ( -3.491481338843133355E-15, 1.224646799147353207E-16, -1.000000000000000000 ) ) ;
#11 = MANIFOLD_SOLID_BREP ( 'Corps-Déplacer/Copier1[2]', #43 ) ;
#12 = CARTESIAN_POINT ( 'NONE',  ( 1.735266225405037467E-13, 1.499999999999995559, 49.70000000000000284 ) ) ;
#13 = DIRECTION ( 'NONE',  ( 4.275831445896958607E-31, 1.000000000000000000, 1.224646799147353207E-16 ) ) ;
#14 = PERSON_AND_ORGANIZATION_ROLE ( 'design_owner' ) ;
#15 = CC_DESIGN_SECURITY_CLASSIFICATION ( #247, ( #125 ) ) ;
#16 = AXIS2_PLACEMENT_3D ( 'NONE', #245, #274, #294 ) ;
#17 = PERSON_AND_ORGANIZATION_ROLE ( 'creator' ) ;
#18 = PERSON_AND_ORGANIZATION_ROLE ( 'design_supplier' ) ;
#19 = EDGE_CURVE ( 'NONE', #265, #265, #275, .T. ) ;
#20 = FACE_OUTER_BOUND ( 'NONE', #45, .T. ) ;
#21 = DIRECTION ( 'NONE',  ( -3.491481338843133355E-15, 1.224646799147353207E-16, -1.000000000000000000 ) ) ;
#22 = EDGE_LOOP ( 'NONE', ( #123 ) ) ;
#23 = DESIGN_CONTEXT ( 'detailed design', #42, 'design' ) ;
#24 = APPLICATION_CONTEXT ( 'configuration controlled 3d designs of mechanical parts and assemblies' ) ;
#25 = ORIENTED_EDGE ( 'NONE', *, *, #154, .T. ) ;
#26 = AXIS2_PLACEMENT_3D ( 'NONE', #209, #104, #303 ) ;
#27 = CARTESIAN_POINT ( 'NONE',  ( 0.0000000000000000000, 0.0000000000000000000, 0.0000000000000000000 ) ) ;
#28 = DIRECTION ( 'NONE',  ( 3.491481338843133355E-15, -1.224646799147353207E-16, 1.000000000000000000 ) ) ;
#29 = ADVANCED_FACE ( 'NONE', ( #98 ), #53, .F. ) ;
#30 = FACE_OUTER_BOUND ( 'NONE', #233, .T. ) ;
#31 = CARTESIAN_POINT ( 'NONE',  ( -5.465887534287666367E-31, 1.917175268530212607E-32, -1.565492409619675202E-16 ) ) ;
#32 = FACE_OUTER_BOUND ( 'NONE', #164, .T. ) ;
#33 = CARTESIAN_POINT ( 'NONE',  ( 2.883896417162832445E-14, -1.011534696479630343E-15, 8.259807621135337286 ) ) ;
#34 = DIRECTION ( 'NONE',  ( -3.491481338843133355E-15, 1.224646799147353207E-16, -1.000000000000000000 ) ) ;
#35 = DATE_AND_TIME ( #251, #180 ) ;
#36 = APPROVAL_DATE_TIME ( #157, #108 ) ;
#37 = CALENDAR_DATE ( 2021, 1, 12 ) ;
#38 = APPROVAL_ROLE ( '' ) ;
#39 = EDGE_LOOP ( 'NONE', ( #235 ) ) ;
#40 = LOCAL_TIME ( 15, 3, 39.00000000000000000, #300 ) ;
#41 = SECURITY_CLASSIFICATION_LEVEL ( 'unclassified' ) ;
#42 = APPLICATION_CONTEXT ( 'configuration controlled 3d designs of mechanical parts and assemblies' ) ;
#43 = CLOSED_SHELL ( 'NONE', ( #29, #57, #150, #262 ) ) ;
#44 = ORIENTED_EDGE ( 'NONE', *, *, #63, .F. ) ;
#45 = EDGE_LOOP ( 'NONE', ( #165 ) ) ;
#46 = CC_DESIGN_APPROVAL ( #276, ( #247 ) ) ;
#47 = DIRECTION ( 'NONE',  ( -4.275831445896958607E-31, -1.000000000000000000, -1.224646799147353207E-16 ) ) ;
#48 = AXIS2_PLACEMENT_3D ( 'NONE', #60, #228, #232 ) ;
#49 = EDGE_LOOP ( 'NONE', ( #272 ) ) ;
#50 = EDGE_CURVE ( 'NONE', #133, #133, #258, .T. ) ;
#51 = EDGE_LOOP ( 'NONE', ( #207 ) ) ;
#52 = CARTESIAN_POINT ( 'NONE',  ( 1.735266225405037467E-13, -6.086494591762345225E-15, 49.70000000000000284 ) ) ;
#53 = PLANE ( 'NONE',  #84 ) ;
#54 = ORGANIZATION ( 'UNSPECIFIED', 'UNSPECIFIED', '' ) ;
#55 = DIRECTION ( 'NONE',  ( -3.491481338843133355E-15, 1.224646799147353207E-16, -1.000000000000000000 ) ) ;
#56 = CYLINDRICAL_SURFACE ( 'NONE', #293, 1.499999999999999112 ) ;
#57 = ADVANCED_FACE ( 'NONE', ( #147, #20 ), #162, .T. ) ;
#58 = FACE_OUTER_BOUND ( 'NONE', #256, .T. ) ;
#59 = VERTEX_POINT ( 'NONE', #107 ) ;
#60 = CARTESIAN_POINT ( 'NONE',  ( 0.0000000000000000000, 0.0000000000000000000, 0.0000000000000000000 ) ) ;
#61 = DIRECTION ( 'NONE',  ( -3.491481338843133355E-15, 1.224646799147353207E-16, -1.000000000000000000 ) ) ;
#62 = COORDINATED_UNIVERSAL_TIME_OFFSET ( 1, 0, .AHEAD. ) ;
#63 = EDGE_CURVE ( 'NONE', #129, #129, #261, .T. ) ;
#64 = DATE_AND_TIME ( #197, #224 ) ;
#65 = AXIS2_PLACEMENT_3D ( 'NONE', #291, #10, #168 ) ;
#66 =( LENGTH_UNIT ( ) NAMED_UNIT ( * ) SI_UNIT ( .MILLI., .METRE. ) );
#67 = PERSON_AND_ORGANIZATION ( #79, #54 ) ;
#68 = ORIENTED_EDGE ( 'NONE', *, *, #154, .F. ) ;
#69 = AXIS2_PLACEMENT_3D ( 'NONE', #239, #6, #47 ) ;
#70 = SHAPE_DEFINITION_REPRESENTATION ( #152, #202 ) ;
#71 = CARTESIAN_POINT ( 'NONE',  ( 8.728703347107829444E-16, -3.061616997868381785E-17, 0.2499999999999998890 ) ) ;
#72 = LOCAL_TIME ( 15, 3, 39.00000000000000000, #182 ) ;
#73 = EDGE_LOOP ( 'NONE', ( #241 ) ) ;
#74 = APPROVAL ( #115, 'UNSPECIFIED' ) ;
#75 = CARTESIAN_POINT ( 'NONE',  ( 2.883896417162832445E-14, 0.8299999999999978506, 8.259807621135337286 ) ) ;
#76 = EDGE_LOOP ( 'NONE', ( #161 ) ) ;
#77 = DIRECTION ( 'NONE',  ( -4.275831445896958607E-31, -1.000000000000000000, -1.224646799147353207E-16 ) ) ;
#78 = AXIS2_PLACEMENT_3D ( 'NONE', #211, #110, #149 ) ;
#79 = PERSON ( 'UNSPECIFIED', 'UNSPECIFIED', 'UNSPECIFIED', ('UNSPECIFIED'), ('UNSPECIFIED'), ('UNSPECIFIED') ) ;
#80 = FACE_BOUND ( 'NONE', #288, .T. ) ;
#81 = VERTEX_POINT ( 'NONE', #105 ) ;
#82 = ORIENTED_EDGE ( 'NONE', *, *, #194, .F. ) ;
#83 = DIRECTION ( 'NONE',  ( 0.0000000000000000000, 1.000000000000000000, 0.0000000000000000000 ) ) ;
#84 = AXIS2_PLACEMENT_3D ( 'NONE', #212, #5, #106 ) ;
#85 = APPLICATION_PROTOCOL_DEFINITION ( 'international standard', 'config_control_design', 1994, #24 ) ;
#86 = CALENDAR_DATE ( 2021, 1, 12 ) ;
#87 = PERSON_AND_ORGANIZATION ( #79, #54 ) ;
#88 = EDGE_CURVE ( 'NONE', #81, #81, #277, .T. ) ;
#89 = APPROVAL_ROLE ( '' ) ;
#90 = CALENDAR_DATE ( 2021, 1, 12 ) ;
#91 = CARTESIAN_POINT ( 'NONE',  ( 6.284666409917640040E-14, -2.168404344971008868E-15, 18.00000000000000000 ) ) ;
#92 = APPROVAL_PERSON_ORGANIZATION ( #255, #74, #38 ) ;
#93 = EDGE_LOOP ( 'NONE', ( #114 ) ) ;
#94 = CC_DESIGN_PERSON_AND_ORGANIZATION_ASSIGNMENT ( #201, #14, ( #216 ) ) ;
#95 = CARTESIAN_POINT ( 'NONE',  ( 1.745740669421566678E-13, -6.123233995736766085E-15, 50.00000000000000000 ) ) ;
#96 = FACE_OUTER_BOUND ( 'NONE', #282, .T. ) ;
#97 = FACE_OUTER_BOUND ( 'NONE', #76, .T. ) ;
#98 = FACE_OUTER_BOUND ( 'NONE', #2, .T. ) ;
#99 = DIRECTION ( 'NONE',  ( -3.491481338843133355E-15, 1.224646799147353207E-16, -1.000000000000000000 ) ) ;
#100 = DIRECTION ( 'NONE',  ( 3.491481338843133355E-15, -1.224646799147353207E-16, 1.000000000000000000 ) ) ;
#101 = ORIENTED_EDGE ( 'NONE', *, *, #267, .T. ) ;
#102 = CC_DESIGN_PERSON_AND_ORGANIZATION_ASSIGNMENT ( #230, #18, ( #125 ) ) ;
#103 = DIRECTION ( 'NONE',  ( -3.491481338843133355E-15, 1.224646799147353207E-16, -1.000000000000000000 ) ) ;
#104 = DIRECTION ( 'NONE',  ( -3.491481338843133355E-15, 1.224646799147353207E-16, -1.000000000000000000 ) ) ;
#105 = CARTESIAN_POINT ( 'NONE',  ( -1.892735826383160481E-31, 0.8356624327025947707, -5.421010862427520937E-17 ) ) ;
#106 = DIRECTION ( 'NONE',  ( -4.275831445896958607E-31, -1.000000000000000000, -1.224646799147353207E-16 ) ) ;
#107 = CARTESIAN_POINT ( 'NONE',  ( 8.728703347107833388E-16, 0.9799999999999990941, 0.2500000000000000000 ) ) ;
#108 = APPROVAL ( #183, 'UNSPECIFIED' ) ;
#109 = CIRCLE ( 'NONE', #158, 1.499999999999996669 ) ;
#110 = DIRECTION ( 'NONE',  ( -3.491481338843133355E-15, 1.224646799147353207E-16, -1.000000000000000000 ) ) ;
#111 = FACE_OUTER_BOUND ( 'NONE', #49, .T. ) ;
#112 = VERTEX_POINT ( 'NONE', #196 ) ;
#113 = ADVANCED_FACE ( 'NONE', ( #132, #111 ), #187, .F. ) ;
#114 = ORIENTED_EDGE ( 'NONE', *, *, #287, .F. ) ;
#115 = APPROVAL_STATUS ( 'not_yet_approved' ) ;
#116 = AXIS2_PLACEMENT_3D ( 'NONE', #292, #61, #156 ) ;
#117 = PERSON_AND_ORGANIZATION_ROLE ( 'classification_officer' ) ;
#118 = CC_DESIGN_PERSON_AND_ORGANIZATION_ASSIGNMENT ( #67, #17, ( #127 ) ) ;
#119 = CARTESIAN_POINT ( 'NONE',  ( 0.0000000000000000000, 0.0000000000000000000, 0.0000000000000000000 ) ) ;
#120 = ORIENTED_EDGE ( 'NONE', *, *, #88, .T. ) ;
#121 = CIRCLE ( 'NONE', #226, 1.500000000000001554 ) ;
#122 = ADVANCED_FACE ( 'NONE', ( #285, #96 ), #128, .T. ) ;
#123 = ORIENTED_EDGE ( 'NONE', *, *, #208, .T. ) ;
#124 = DIRECTION ( 'NONE',  ( -3.930469274259668590E-31, -1.000000000000000000, -1.106328747434189207E-16 ) ) ;
#125 = PRODUCT_DEFINITION_FORMATION_WITH_SPECIFIED_SOURCE ( 'ANY', '', #216, .NOT_KNOWN. ) ;
#126 = AXIS2_PLACEMENT_3D ( 'NONE', #188, #21, #289 ) ;
#127 = PRODUCT_DEFINITION ( 'UNKNOWN', '', #125, #23 ) ;
#128 = CYLINDRICAL_SURFACE ( 'NONE', #269, 0.8299999999999994049 ) ;
#129 = VERTEX_POINT ( 'NONE', #296 ) ;
#130 = VERTEX_POINT ( 'NONE', #220 ) ;
#131 = DIRECTION ( 'NONE',  ( -3.491481338843133355E-15, 1.224646799147353207E-16, -1.000000000000000000 ) ) ;
#132 = FACE_OUTER_BOUND ( 'NONE', #184, .T. ) ;
#133 = VERTEX_POINT ( 'NONE', #270 ) ;
#134 = ADVANCED_FACE ( 'NONE', ( #206 ), #142, .F. ) ;
#135 = VERTEX_POINT ( 'NONE', #12 ) ;
#136 = CC_DESIGN_DATE_AND_TIME_ASSIGNMENT ( #35, #203, ( #247 ) ) ;
#137 = PERSON_AND_ORGANIZATION ( #79, #54 ) ;
#138 =( NAMED_UNIT ( * ) PLANE_ANGLE_UNIT ( ) SI_UNIT ( $, .RADIAN. ) );
#139 = ORIENTED_EDGE ( 'NONE', *, *, #208, .F. ) ;
#140 = PERSON_AND_ORGANIZATION_ROLE ( 'creator' ) ;
#141 = ORIENTED_EDGE ( 'NONE', *, *, #88, .F. ) ;
#142 = PLANE ( 'NONE',  #69 ) ;
#143 = EDGE_LOOP ( 'NONE', ( #263 ) ) ;
#144 = AXIS2_PLACEMENT_3D ( 'NONE', #151, #131, #83 ) ;
#145 = ORIENTED_EDGE ( 'NONE', *, *, #223, .T. ) ;
#146 = EDGE_LOOP ( 'NONE', ( #25 ) ) ;
#147 = FACE_BOUND ( 'NONE', #240, .T. ) ;
#148 = CIRCLE ( 'NONE', #65, 0.9799999999999990941 ) ;
#149 = DIRECTION ( 'NONE',  ( 0.0000000000000000000, 1.000000000000000000, 0.0000000000000000000 ) ) ;
#150 = ADVANCED_FACE ( 'NONE', ( #58, #97 ), #219, .T. ) ;
#151 = CARTESIAN_POINT ( 'NONE',  ( 1.745740669421566678E-13, -6.123233995736766085E-15, 50.00000000000000000 ) ) ;
#152 = PRODUCT_DEFINITION_SHAPE ( 'NONE', 'NONE',  #127 ) ;
#153 = DIRECTION ( 'NONE',  ( 0.0000000000000000000, 1.000000000000000000, 0.0000000000000000000 ) ) ;
#154 = EDGE_CURVE ( 'NONE', #130, #130, #171, .T. ) ;
#155 = CARTESIAN_POINT ( 'NONE',  ( 7.672438118044443509E-14, -2.691129028354637494E-15, 21.97473614619583770 ) ) ;
#156 = DIRECTION ( 'NONE',  ( 4.275831445896958607E-31, 1.000000000000000000, 1.224646799147353207E-16 ) ) ;
#157 = DATE_AND_TIME ( #37, #279 ) ;
#158 = AXIS2_PLACEMENT_3D ( 'NONE', #155, #190, #246 ) ;
#159 = COORDINATED_UNIVERSAL_TIME_OFFSET ( 1, 0, .AHEAD. ) ;
#160 = CC_DESIGN_APPROVAL ( #74, ( #127 ) ) ;
#161 = ORIENTED_EDGE ( 'NONE', *, *, #287, .T. ) ;
#162 = CONICAL_SURFACE ( 'NONE', #199, 0.9799999999999990941, 0.5235987755982922653 ) ;
#163 = CC_DESIGN_PERSON_AND_ORGANIZATION_ASSIGNMENT ( #177, #117, ( #247 ) ) ;
#164 = EDGE_LOOP ( 'NONE', ( #145 ) ) ;
#165 = ORIENTED_EDGE ( 'NONE', *, *, #194, .T. ) ;
#166 = CC_DESIGN_PERSON_AND_ORGANIZATION_ASSIGNMENT ( #283, #140, ( #125 ) ) ;
#167 = DIRECTION ( 'NONE',  ( -3.491481338843133355E-15, 1.224646799147353207E-16, -1.000000000000000000 ) ) ;
#168 = DIRECTION ( 'NONE',  ( 3.930469274259668590E-31, 1.000000000000000000, 1.106328747434189207E-16 ) ) ;
#169 = ADVANCED_FACE ( 'NONE', ( #249 ), #259, .F. ) ;
#170 = EDGE_LOOP ( 'NONE', ( #68 ) ) ;
#171 = CIRCLE ( 'NONE', #253, 1.200000000000001732 ) ;
#172 = DIRECTION ( 'NONE',  ( 0.0000000000000000000, 1.000000000000000000, 0.0000000000000000000 ) ) ;
#173 = CARTESIAN_POINT ( 'NONE',  ( 2.793185071074506684E-14, 0.9799999999999990941, 8.000000000000000000 ) ) ;
#174 = ADVANCED_FACE ( 'NONE', ( #250, #193 ), #56, .T. ) ;
#175 = DIRECTION ( 'NONE',  ( 0.0000000000000000000, 1.000000000000000000, 0.0000000000000000000 ) ) ;
#176 = VERTEX_POINT ( 'NONE', #75 ) ;
#177 = PERSON_AND_ORGANIZATION ( #79, #54 ) ;
#178 = DATE_AND_TIME ( #86, #72 ) ;
#179 = APPLICATION_PROTOCOL_DEFINITION ( 'international standard', 'config_control_design', 1994, #42 ) ;
#180 = LOCAL_TIME ( 15, 3, 39.00000000000000000, #62 ) ;
#181 = AXIS2_PLACEMENT_3D ( 'NONE', #290, #7, #175 ) ;
#182 = COORDINATED_UNIVERSAL_TIME_OFFSET ( 1, 0, .AHEAD. ) ;
#183 = APPROVAL_STATUS ( 'not_yet_approved' ) ;
#184 = EDGE_LOOP ( 'NONE', ( #44 ) ) ;
#185 = CC_DESIGN_DATE_AND_TIME_ASSIGNMENT ( #280, #252, ( #127 ) ) ;
#186 = AXIS2_PLACEMENT_3D ( 'NONE', #119, #301, #257 ) ;
#187 = TOROIDAL_SURFACE ( 'NONE', #229, 2.830000000000000071, 2.000000000000000000 ) ;
#188 = CARTESIAN_POINT ( 'NONE',  ( 2.793185071074506684E-14, -9.797174393178825657E-16, 8.000000000000000000 ) ) ;
#189 = CARTESIAN_POINT ( 'NONE',  ( 6.284666409917640040E-14, -2.204364238465235428E-15, 18.00000000000000000 ) ) ;
#190 = DIRECTION ( 'NONE',  ( -3.491481338843133355E-15, 1.224646799147353207E-16, -1.000000000000000000 ) ) ;
#191 = FACE_BOUND ( 'NONE', #242, .T. ) ;
#192 = CONICAL_SURFACE ( 'NONE', #78, 0.8299999999999988498, 0.5235987755982943748 ) ;
#193 = FACE_OUTER_BOUND ( 'NONE', #22, .T. ) ;
#194 = EDGE_CURVE ( 'NONE', #59, #59, #148, .T. ) ;
#195 = FACE_OUTER_BOUND ( 'NONE', #93, .T. ) ;
#196 = CARTESIAN_POINT ( 'NONE',  ( 7.672438118044443509E-14, 1.499999999999994005, 21.97473614619583770 ) ) ;
#197 = CALENDAR_DATE ( 2021, 1, 12 ) ;
#198 =( GEOMETRIC_REPRESENTATION_CONTEXT ( 3 ) GLOBAL_UNCERTAINTY_ASSIGNED_CONTEXT ( ( #266 ) ) GLOBAL_UNIT_ASSIGNED_CONTEXT ( ( #66, #138, #204 ) ) REPRESENTATION_CONTEXT ( 'NONE', 'WORKASPACE' ) );
#199 = AXIS2_PLACEMENT_3D ( 'NONE', #71, #100, #124 ) ;
#200 = ADVANCED_FACE ( 'NONE', ( #191, #32 ), #215, .T. ) ;
#201 = PERSON_AND_ORGANIZATION ( #79, #54 ) ;
#202 = ADVANCED_BREP_SHAPE_REPRESENTATION ( '200712', ( #1, #11, #186 ), #198 ) ;
#203 = DATE_TIME_ROLE ( 'classification_date' ) ;
#204 =( NAMED_UNIT ( * ) SI_UNIT ( $, .STERADIAN. ) SOLID_ANGLE_UNIT ( ) );
#205 = AXIS2_PLACEMENT_3D ( 'NONE', #33, #103, #172 ) ;
#206 = FACE_OUTER_BOUND ( 'NONE', #143, .T. ) ;
#207 = ORIENTED_EDGE ( 'NONE', *, *, #267, .F. ) ;
#208 = EDGE_CURVE ( 'NONE', #135, #135, #121, .T. ) ;
#209 = CARTESIAN_POINT ( 'NONE',  ( 6.405924284287275164E-14, -2.246895775456749140E-15, 18.34729635533384595 ) ) ;
#210 = CARTESIAN_POINT ( 'NONE',  ( 0.0000000000000000000, 0.0000000000000000000, 0.0000000000000000000 ) ) ;
#211 = CARTESIAN_POINT ( 'NONE',  ( 2.883896417162832445E-14, -1.011534696479630343E-15, 8.259807621135337286 ) ) ;
#212 = CARTESIAN_POINT ( 'NONE',  ( -2.732943767143833184E-31, 9.585876342651063034E-33, -7.827462048098376011E-17 ) ) ;
#213 = DIRECTION ( 'NONE',  ( 4.275831445896958607E-31, 1.000000000000000000, 1.224646799147353207E-16 ) ) ;
#214 = CARTESIAN_POINT ( 'NONE',  ( 6.405924284287275164E-14, 0.8603844939755792565, 18.34729635533384595 ) ) ;
#215 = CONICAL_SURFACE ( 'NONE', #16, 1.499999999999996669, 0.1745329251994260367 ) ;
#216 = PRODUCT ( '200712', '200712', '', ( #227 ) ) ;
#217 = DIRECTION ( 'NONE',  ( -3.491481338843133355E-15, 1.224646799147353207E-16, -1.000000000000000000 ) ) ;
#218 = CLOSED_SHELL ( 'NONE', ( #134, #231, #122, #113, #200, #174, #244, #169 ) ) ;
#219 = CYLINDRICAL_SURFACE ( 'NONE', #48, 0.9799999999999995381 ) ;
#220 = CARTESIAN_POINT ( 'NONE',  ( 1.745740669421566678E-13, 1.199999999999995515, 50.00000000000000000 ) ) ;
#221 = FACE_BOUND ( 'NONE', #146, .T. ) ;
#222 = DIRECTION ( 'NONE',  ( -3.491481338843133355E-15, 1.224646799147353207E-16, -1.000000000000000000 ) ) ;
#223 = EDGE_CURVE ( 'NONE', #112, #112, #109, .T. ) ;
#224 = LOCAL_TIME ( 15, 3, 39.00000000000000000, #159 ) ;
#225 = APPROVAL_STATUS ( 'not_yet_approved' ) ;
#226 = AXIS2_PLACEMENT_3D ( 'NONE', #52, #273, #153 ) ;
#227 = MECHANICAL_CONTEXT ( 'NONE', #24, 'mechanical' ) ;
#228 = DIRECTION ( 'NONE',  ( -3.491481338843133355E-15, 1.224646799147353207E-16, -1.000000000000000000 ) ) ;
#229 = AXIS2_PLACEMENT_3D ( 'NONE', #91, #55, #213 ) ;
#230 = PERSON_AND_ORGANIZATION ( #79, #54 ) ;
#231 = ADVANCED_FACE ( 'NONE', ( #248, #80 ), #192, .T. ) ;
#232 = DIRECTION ( 'NONE',  ( 4.275831445896958607E-31, 1.000000000000000000, 1.224646799147353207E-16 ) ) ;
#233 = EDGE_LOOP ( 'NONE', ( #139 ) ) ;
#234 = DIRECTION ( 'NONE',  ( 0.0000000000000000000, 1.000000000000000000, 0.0000000000000000000 ) ) ;
#235 = ORIENTED_EDGE ( 'NONE', *, *, #223, .F. ) ;
#236 = PRODUCT_RELATED_PRODUCT_CATEGORY ( 'detail', '', ( #216 ) ) ;
#237 = CIRCLE ( 'NONE', #205, 0.8299999999999988498 ) ;
#238 = ORIENTED_EDGE ( 'NONE', *, *, #19, .F. ) ;
#239 = CARTESIAN_POINT ( 'NONE',  ( 2.793185071074506684E-14, 7.348822935043088868E-33, 8.000000000000000000 ) ) ;
#240 = EDGE_LOOP ( 'NONE', ( #141 ) ) ;
#241 = ORIENTED_EDGE ( 'NONE', *, *, #50, .F. ) ;
#242 = EDGE_LOOP ( 'NONE', ( #238 ) ) ;
#243 = PLANE ( 'NONE',  #302 ) ;
#244 = ADVANCED_FACE ( 'NONE', ( #30, #221 ), #281, .T. ) ;
#245 = CARTESIAN_POINT ( 'NONE',  ( 7.672438118044443509E-14, -2.691129028354637494E-15, 21.97473614619583770 ) ) ;
#246 = DIRECTION ( 'NONE',  ( 0.0000000000000000000, 1.000000000000000000, 0.0000000000000000000 ) ) ;
#247 = SECURITY_CLASSIFICATION ( '', '', #41 ) ;
#248 = FACE_OUTER_BOUND ( 'NONE', #73, .T. ) ;
#249 = FACE_OUTER_BOUND ( 'NONE', #170, .T. ) ;
#250 = FACE_OUTER_BOUND ( 'NONE', #39, .T. ) ;
#251 = CALENDAR_DATE ( 2021, 1, 12 ) ;
#252 = DATE_TIME_ROLE ( 'creation_date' ) ;
#253 = AXIS2_PLACEMENT_3D ( 'NONE', #95, #99, #234 ) ;
#254 = APPROVAL_DATE_TIME ( #64, #74 ) ;
#255 = PERSON_AND_ORGANIZATION ( #79, #54 ) ;
#256 = EDGE_LOOP ( 'NONE', ( #82 ) ) ;
#257 = DIRECTION ( 'NONE',  ( 1.000000000000000000, 0.0000000000000000000, 0.0000000000000000000 ) ) ;
#258 = CIRCLE ( 'NONE', #126, 0.9800000000000002043 ) ;
#259 = PLANE ( 'NONE',  #116 ) ;
#260 = CC_DESIGN_APPROVAL ( #108, ( #125 ) ) ;
#261 = CIRCLE ( 'NONE', #298, 0.8299999999999999600 ) ;
#262 = ADVANCED_FACE ( 'NONE', ( #195 ), #243, .T. ) ;
#263 = ORIENTED_EDGE ( 'NONE', *, *, #50, .T. ) ;
#264 = AXIS2_PLACEMENT_3D ( 'NONE', #31, #222, #13 ) ;
#265 = VERTEX_POINT ( 'NONE', #214 ) ;
#266 = UNCERTAINTY_MEASURE_WITH_UNIT (LENGTH_MEASURE( 1.000000000000000082E-05 ), #66, 'distance_accuracy_value', 'NONE');
#267 = EDGE_CURVE ( 'NONE', #176, #176, #237, .T. ) ;
#268 = APPROVAL_PERSON_ORGANIZATION ( #87, #108, #297 ) ;
#269 = AXIS2_PLACEMENT_3D ( 'NONE', #210, #34, #286 ) ;
#270 = CARTESIAN_POINT ( 'NONE',  ( 2.793185071074506684E-14, 0.9799999999999990941, 8.000000000000000000 ) ) ;
#271 = VERTEX_POINT ( 'NONE', #173 ) ;
#272 = ORIENTED_EDGE ( 'NONE', *, *, #19, .T. ) ;
#273 = DIRECTION ( 'NONE',  ( -3.491481338843133355E-15, 1.224646799147353207E-16, -1.000000000000000000 ) ) ;
#274 = DIRECTION ( 'NONE',  ( 3.491481338843133355E-15, -1.224646799147353207E-16, 1.000000000000000000 ) ) ;
#275 = CIRCLE ( 'NONE', #26, 0.8603844939755814769 ) ;
#276 = APPROVAL ( #225, 'UNSPECIFIED' ) ;
#277 = CIRCLE ( 'NONE', #264, 0.8356624327025947707 ) ;
#278 = APPROVAL_DATE_TIME ( #178, #276 ) ;
#279 = LOCAL_TIME ( 15, 3, 39.00000000000000000, #299 ) ;
#280 = DATE_AND_TIME ( #90, #40 ) ;
#281 = CONICAL_SURFACE ( 'NONE', #144, 1.200000000000001732, 0.7853981633974453924 ) ;
#282 = EDGE_LOOP ( 'NONE', ( #284 ) ) ;
#283 = PERSON_AND_ORGANIZATION ( #79, #54 ) ;
#284 = ORIENTED_EDGE ( 'NONE', *, *, #63, .T. ) ;
#285 = FACE_OUTER_BOUND ( 'NONE', #51, .T. ) ;
#286 = DIRECTION ( 'NONE',  ( 4.275831445896958607E-31, 1.000000000000000000, 1.224646799147353207E-16 ) ) ;
#287 = EDGE_CURVE ( 'NONE', #271, #271, #9, .T. ) ;
#288 = EDGE_LOOP ( 'NONE', ( #101 ) ) ;
#289 = DIRECTION ( 'NONE',  ( 0.0000000000000000000, 1.000000000000000000, 0.0000000000000000000 ) ) ;
#290 = CARTESIAN_POINT ( 'NONE',  ( 2.793185071074506684E-14, -9.797174393178825657E-16, 8.000000000000000000 ) ) ;
#291 = CARTESIAN_POINT ( 'NONE',  ( 8.728703347107829444E-16, -3.061616997868381785E-17, 0.2499999999999998890 ) ) ;
#292 = CARTESIAN_POINT ( 'NONE',  ( 1.745740669421566678E-13, 8.998558695971067645E-33, 50.00000000000000000 ) ) ;
#293 = AXIS2_PLACEMENT_3D ( 'NONE', #27, #217, #295 ) ;
#294 = DIRECTION ( 'NONE',  ( 0.0000000000000000000, -1.000000000000000000, 0.0000000000000000000 ) ) ;
#295 = DIRECTION ( 'NONE',  ( 4.275831445896958607E-31, 1.000000000000000000, 1.224646799147353454E-16 ) ) ;
#296 = CARTESIAN_POINT ( 'NONE',  ( 6.284666409917640040E-14, 0.8299999999999978506, 18.00000000000000000 ) ) ;
#297 = APPROVAL_ROLE ( '' ) ;
#298 = AXIS2_PLACEMENT_3D ( 'NONE', #189, #167, #8 ) ;
#299 = COORDINATED_UNIVERSAL_TIME_OFFSET ( 1, 0, .AHEAD. ) ;
#300 = COORDINATED_UNIVERSAL_TIME_OFFSET ( 1, 0, .AHEAD. ) ;
#301 = DIRECTION ( 'NONE',  ( 0.0000000000000000000, 0.0000000000000000000, 1.000000000000000000 ) ) ;
#302 = AXIS2_PLACEMENT_3D ( 'NONE', #4, #28, #77 ) ;
#303 = DIRECTION ( 'NONE',  ( 0.0000000000000000000, 1.000000000000000000, 0.0000000000000000000 ) ) ;
ENDSEC;
END-ISO-10303-21;
