ISO-10303-21;
HEADER;
FILE_DESCRIPTION (( 'STEP AP203' ),
    '1' );
FILE_NAME ('200711.step',
    '2021-12-01T14:03:38',
    ( '' ),
    ( '' ),
    'SwSTEP 2.0',
    'SolidWorks 2019',
    '' );
FILE_SCHEMA (( 'CONFIG_CONTROL_DESIGN' ));
ENDSEC;

DATA;
#1 = CIRCLE ( 'NONE', #187, 1.050000000000000044 ) ;
#2 = APPROVAL_STATUS ( 'not_yet_approved' ) ;
#3 = APPROVAL_ROLE ( '' ) ;
#4 = PRODUCT_RELATED_PRODUCT_CATEGORY ( 'detail', '', ( #88 ) ) ;
#5 = APPROVAL_ROLE ( '' ) ;
#6 = ORIENTED_EDGE ( 'NONE', *, *, #209, .F. ) ;
#7 = PERSON_AND_ORGANIZATION ( #283, #86 ) ;
#8 = EDGE_CURVE ( 'NONE', #146, #146, #288, .T. ) ;
#9 = EDGE_LOOP ( 'NONE', ( #275 ) ) ;
#10 = EDGE_LOOP ( 'NONE', ( #291 ) ) ;
#11 = ADVANCED_FACE ( 'NONE', ( #97, #52 ), #115, .T. ) ;
#12 = FACE_OUTER_BOUND ( 'NONE', #267, .T. ) ;
#13 = CYLINDRICAL_SURFACE ( 'NONE', #248, 1.049999999999999378 ) ;
#14 = FACE_OUTER_BOUND ( 'NONE', #9, .T. ) ;
#15 = DIRECTION ( 'NONE',  ( 0.0000000000000000000, 1.000000000000000000, 0.0000000000000000000 ) ) ;
#16 = DIRECTION ( 'NONE',  ( -3.491481338843133355E-15, 1.224646799147353207E-16, -1.000000000000000000 ) ) ;
#17 = CARTESIAN_POINT ( 'NONE',  ( 1.735266225405037467E-13, -6.086494591762345225E-15, 49.70000000000000284 ) ) ;
#18 = DIRECTION ( 'NONE',  ( -3.491481338843133355E-15, 1.224646799147353207E-16, -1.000000000000000000 ) ) ;
#19 = DIRECTION ( 'NONE',  ( 0.0000000000000000000, 1.000000000000000000, 0.0000000000000000000 ) ) ;
#20 = ORIENTED_EDGE ( 'NONE', *, *, #281, .F. ) ;
#21 = PERSON_AND_ORGANIZATION_ROLE ( 'creator' ) ;
#22 = EDGE_LOOP ( 'NONE', ( #76 ) ) ;
#23 = CARTESIAN_POINT ( 'NONE',  ( 7.533829895560830494E-14, -2.642511808462434453E-15, 21.57774641882258493 ) ) ;
#24 = DESIGN_CONTEXT ( 'detailed design', #268, 'design' ) ;
#25 = CIRCLE ( 'NONE', #289, 1.200000000000001732 ) ;
#26 = PRODUCT_DEFINITION ( 'UNKNOWN', '', #232, #24 ) ;
#27 = AXIS2_PLACEMENT_3D ( 'NONE', #67, #100, #48 ) ;
#28 = COORDINATED_UNIVERSAL_TIME_OFFSET ( 1, 0, .AHEAD. ) ;
#29 = VERTEX_POINT ( 'NONE', #215 ) ;
#30 = DIRECTION ( 'NONE',  ( -3.491481338843133355E-15, 1.224646799147353207E-16, -1.000000000000000000 ) ) ;
#31 = EDGE_LOOP ( 'NONE', ( #125 ) ) ;
#32 = CARTESIAN_POINT ( 'NONE',  ( 2.793185071074506684E-14, -9.797174393178825657E-16, 8.000000000000000000 ) ) ;
#33 = DIRECTION ( 'NONE',  ( 0.0000000000000000000, -1.000000000000000000, 0.0000000000000000000 ) ) ;
#34 = CONICAL_SURFACE ( 'NONE', #210, 1.049999999999998934, 0.5235987755982924874 ) ;
#35 = DIRECTION ( 'NONE',  ( 4.275831445896958607E-31, 1.000000000000000000, 1.224646799147353207E-16 ) ) ;
#36 = CARTESIAN_POINT ( 'NONE',  ( 6.284666409917640040E-14, 0.8999999999999975797, 18.00000000000000000 ) ) ;
#37 = ORIENTED_EDGE ( 'NONE', *, *, #281, .T. ) ;
#38 = CARTESIAN_POINT ( 'NONE',  ( 6.284666409917640040E-14, -2.168404344971008868E-15, 18.00000000000000000 ) ) ;
#39 = APPROVAL_DATE_TIME ( #83, #298 ) ;
#40 = CARTESIAN_POINT ( 'NONE',  ( 8.728703347107831416E-16, -3.061616997868382402E-17, 0.2499999999999999445 ) ) ;
#41 = ADVANCED_FACE ( 'NONE', ( #169 ), #186, .T. ) ;
#42 = PERSON_AND_ORGANIZATION_ROLE ( 'creator' ) ;
#43 = COORDINATED_UNIVERSAL_TIME_OFFSET ( 1, 0, .AHEAD. ) ;
#44 = CALENDAR_DATE ( 2021, 1, 12 ) ;
#45 = PERSON_AND_ORGANIZATION_ROLE ( 'classification_officer' ) ;
#46 = AXIS2_PLACEMENT_3D ( 'NONE', #89, #234, #136 ) ;
#47 = ADVANCED_FACE ( 'NONE', ( #79, #82 ), #141, .F. ) ;
#48 = DIRECTION ( 'NONE',  ( 0.0000000000000000000, 1.000000000000000000, 0.0000000000000000000 ) ) ;
#49 = ORIENTED_EDGE ( 'NONE', *, *, #8, .F. ) ;
#50 = APPROVAL_PERSON_ORGANIZATION ( #84, #176, #137 ) ;
#51 = FACE_OUTER_BOUND ( 'NONE', #247, .T. ) ;
#52 = FACE_BOUND ( 'NONE', #241, .T. ) ;
#53 = ADVANCED_FACE ( 'NONE', ( #252, #297 ), #208, .T. ) ;
#54 = DIRECTION ( 'NONE',  ( 0.0000000000000000000, 1.000000000000000000, 0.0000000000000000000 ) ) ;
#55 = ORIENTED_EDGE ( 'NONE', *, *, #209, .T. ) ;
#56 = DIRECTION ( 'NONE',  ( -3.491481338843133355E-15, 1.224646799147353207E-16, -1.000000000000000000 ) ) ;
#57 = EDGE_LOOP ( 'NONE', ( #49 ) ) ;
#58 = DIRECTION ( 'NONE',  ( 3.491481338843133355E-15, -1.224646799147353207E-16, 1.000000000000000000 ) ) ;
#59 = DIRECTION ( 'NONE',  ( -4.275831445896958607E-31, -1.000000000000000000, -1.224646799147353207E-16 ) ) ;
#60 = PLANE ( 'NONE',  #185 ) ;
#61 = AXIS2_PLACEMENT_3D ( 'NONE', #273, #301, #33 ) ;
#62 = CIRCLE ( 'NONE', #239, 0.9056624327025944998 ) ;
#63 = ADVANCED_FACE ( 'NONE', ( #122 ), #229, .F. ) ;
#64 = UNCERTAINTY_MEASURE_WITH_UNIT (LENGTH_MEASURE( 1.000000000000000082E-05 ), #199, 'distance_accuracy_value', 'NONE');
#65 = CARTESIAN_POINT ( 'NONE',  ( 1.745740669421566678E-13, 1.199999999999995515, 50.00000000000000000 ) ) ;
#66 = EDGE_LOOP ( 'NONE', ( #117 ) ) ;
#67 = CARTESIAN_POINT ( 'NONE',  ( 2.883896417162833076E-14, -1.011534696479630540E-15, 8.259807621135339062 ) ) ;
#68 = AXIS2_PLACEMENT_3D ( 'NONE', #299, #96, #274 ) ;
#69 = CARTESIAN_POINT ( 'NONE',  ( -5.765195735500453242E-31, 2.022158453316542311E-32, -1.651217685559989737E-16 ) ) ;
#70 = APPROVAL ( #177, 'UNSPECIFIED' ) ;
#71 = ORIENTED_EDGE ( 'NONE', *, *, #108, .T. ) ;
#72 = DIRECTION ( 'NONE',  ( -3.491481338843133355E-15, 1.224646799147353207E-16, -1.000000000000000000 ) ) ;
#73 = EDGE_LOOP ( 'NONE', ( #154 ) ) ;
#74 = APPROVAL_DATE_TIME ( #110, #70 ) ;
#75 = DIRECTION ( 'NONE',  ( -3.491481338843133355E-15, 1.224646799147353207E-16, -1.000000000000000000 ) ) ;
#76 = ORIENTED_EDGE ( 'NONE', *, *, #8, .T. ) ;
#77 = AXIS2_PLACEMENT_3D ( 'NONE', #192, #300, #59 ) ;
#78 = VERTEX_POINT ( 'NONE', #296 ) ;
#79 = FACE_OUTER_BOUND ( 'NONE', #277, .T. ) ;
#80 = COORDINATED_UNIVERSAL_TIME_OFFSET ( 1, 0, .AHEAD. ) ;
#81 = PERSON_AND_ORGANIZATION ( #283, #86 ) ;
#82 = FACE_OUTER_BOUND ( 'NONE', #22, .T. ) ;
#83 = DATE_AND_TIME ( #44, #280 ) ;
#84 = PERSON_AND_ORGANIZATION ( #283, #86 ) ;
#85 = PERSON_AND_ORGANIZATION ( #283, #86 ) ;
#86 = ORGANIZATION ( 'UNSPECIFIED', 'UNSPECIFIED', '' ) ;
#87 = ADVANCED_FACE ( 'NONE', ( #222 ), #60, .F. ) ;
#88 = PRODUCT ( '200711', '200711', '', ( #130 ) ) ;
#89 = CARTESIAN_POINT ( 'NONE',  ( 0.0000000000000000000, 0.0000000000000000000, 0.0000000000000000000 ) ) ;
#90 = CC_DESIGN_PERSON_AND_ORGANIZATION_ASSIGNMENT ( #175, #219, ( #232 ) ) ;
#91 = PERSON_AND_ORGANIZATION ( #283, #86 ) ;
#92 = CC_DESIGN_APPROVAL ( #298, ( #232 ) ) ;
#93 = FACE_OUTER_BOUND ( 'NONE', #94, .T. ) ;
#94 = EDGE_LOOP ( 'NONE', ( #287 ) ) ;
#95 = ADVANCED_FACE ( 'NONE', ( #218, #14 ), #34, .T. ) ;
#96 = DIRECTION ( 'NONE',  ( -3.491481338843133355E-15, 1.224646799147353207E-16, -1.000000000000000000 ) ) ;
#97 = FACE_OUTER_BOUND ( 'NONE', #284, .T. ) ;
#98 = AXIS2_PLACEMENT_3D ( 'NONE', #190, #18, #226 ) ;
#99 = CIRCLE ( 'NONE', #159, 0.8999999999999985789 ) ;
#100 = DIRECTION ( 'NONE',  ( -3.491481338843133355E-15, 1.224646799147353207E-16, -1.000000000000000000 ) ) ;
#101 = EDGE_LOOP ( 'NONE', ( #228 ) ) ;
#102 = CARTESIAN_POINT ( 'NONE',  ( 6.405924284287275164E-14, 0.9303844939755776533, 18.34729635533384595 ) ) ;
#103 = EDGE_LOOP ( 'NONE', ( #20 ) ) ;
#104 = FACE_OUTER_BOUND ( 'NONE', #143, .T. ) ;
#105 = CARTESIAN_POINT ( 'NONE',  ( 1.745740669421566678E-13, -6.123233995736766085E-15, 50.00000000000000000 ) ) ;
#106 = CARTESIAN_POINT ( 'NONE',  ( -2.882597867750226621E-31, 1.011079226658271156E-32, -8.256088427799948684E-17 ) ) ;
#107 = DIRECTION ( 'NONE',  ( -3.491481338843133355E-15, 1.224646799147353207E-16, -1.000000000000000000 ) ) ;
#108 = EDGE_CURVE ( 'NONE', #78, #78, #223, .T. ) ;
#109 = AXIS2_PLACEMENT_3D ( 'NONE', #116, #58, #193 ) ;
#110 = DATE_AND_TIME ( #205, #258 ) ;
#111 = SHAPE_DEFINITION_REPRESENTATION ( #147, #292 ) ;
#112 = APPLICATION_PROTOCOL_DEFINITION ( 'international standard', 'config_control_design', 1994, #268 ) ;
#113 = AXIS2_PLACEMENT_3D ( 'NONE', #32, #75, #246 ) ;
#114 = CARTESIAN_POINT ( 'NONE',  ( 1.735266225405037467E-13, 1.499999999999995559, 49.70000000000000284 ) ) ;
#115 = CONICAL_SURFACE ( 'NONE', #213, 1.200000000000001732, 0.7853981633974453924 ) ;
#116 = CARTESIAN_POINT ( 'NONE',  ( 2.793185071074506684E-14, 7.873738858974736020E-33, 8.000000000000000000 ) ) ;
#117 = ORIENTED_EDGE ( 'NONE', *, *, #303, .T. ) ;
#118 = ADVANCED_FACE ( 'NONE', ( #217, #51 ), #182, .T. ) ;
#119 = CARTESIAN_POINT ( 'NONE',  ( 2.793185071074506684E-14, 1.049999999999998934, 8.000000000000000000 ) ) ;
#120 = DIRECTION ( 'NONE',  ( 4.275831445896958607E-31, 1.000000000000000000, 1.224646799147353207E-16 ) ) ;
#121 = DIRECTION ( 'NONE',  ( -3.491481338843133355E-15, 1.224646799147353207E-16, -1.000000000000000000 ) ) ;
#122 = FACE_OUTER_BOUND ( 'NONE', #31, .T. ) ;
#123 = AXIS2_PLACEMENT_3D ( 'NONE', #244, #72, #168 ) ;
#124 = CARTESIAN_POINT ( 'NONE',  ( 1.745740669421566678E-13, -6.123233995736766085E-15, 50.00000000000000000 ) ) ;
#125 = ORIENTED_EDGE ( 'NONE', *, *, #261, .T. ) ;
#126 = CYLINDRICAL_SURFACE ( 'NONE', #68, 1.499999999999999112 ) ;
#127 = CC_DESIGN_PERSON_AND_ORGANIZATION_ASSIGNMENT ( #211, #45, ( #179 ) ) ;
#128 = ORIENTED_EDGE ( 'NONE', *, *, #155, .T. ) ;
#129 = DATE_AND_TIME ( #271, #262 ) ;
#130 = MECHANICAL_CONTEXT ( 'NONE', #255, 'mechanical' ) ;
#131 = DIRECTION ( 'NONE',  ( -3.491481338843133355E-15, 1.224646799147353207E-16, -1.000000000000000000 ) ) ;
#132 = AXIS2_PLACEMENT_3D ( 'NONE', #106, #196, #174 ) ;
#133 = DIRECTION ( 'NONE',  ( 0.0000000000000000000, 1.000000000000000000, 0.0000000000000000000 ) ) ;
#134 = CC_DESIGN_SECURITY_CLASSIFICATION ( #179, ( #232 ) ) ;
#135 = VERTEX_POINT ( 'NONE', #233 ) ;
#136 = DIRECTION ( 'NONE',  ( 1.000000000000000000, 0.0000000000000000000, 0.0000000000000000000 ) ) ;
#137 = APPROVAL_ROLE ( '' ) ;
#138 = DATE_AND_TIME ( #238, #259 ) ;
#139 = CONICAL_SURFACE ( 'NONE', #27, 0.8999999999999985789, 0.5235987755982914882 ) ;
#140 = ADVANCED_FACE ( 'NONE', ( #93, #12 ), #13, .T. ) ;
#141 = TOROIDAL_SURFACE ( 'NONE', #263, 2.899999999999999911, 2.000000000000000444 ) ;
#142 = FACE_OUTER_BOUND ( 'NONE', #164, .T. ) ;
#143 = EDGE_LOOP ( 'NONE', ( #152 ) ) ;
#144 = DIRECTION ( 'NONE',  ( 4.275831445896958607E-31, 1.000000000000000000, 1.224646799147353207E-16 ) ) ;
#145 = ORIENTED_EDGE ( 'NONE', *, *, #257, .F. ) ;
#146 = VERTEX_POINT ( 'NONE', #102 ) ;
#147 = PRODUCT_DEFINITION_SHAPE ( 'NONE', 'NONE',  #26 ) ;
#148 = EDGE_LOOP ( 'NONE', ( #183 ) ) ;
#149 = AXIS2_PLACEMENT_3D ( 'NONE', #23, #107, #133 ) ;
#150 = ADVANCED_FACE ( 'NONE', ( #104, #221 ), #126, .T. ) ;
#151 = DIRECTION ( 'NONE',  ( -3.491481338843133355E-15, 1.224646799147353207E-16, -1.000000000000000000 ) ) ;
#152 = ORIENTED_EDGE ( 'NONE', *, *, #108, .F. ) ;
#153 = CARTESIAN_POINT ( 'NONE',  ( 8.728703347107831416E-16, -3.061616997868382402E-17, 0.2499999999999999445 ) ) ;
#154 = ORIENTED_EDGE ( 'NONE', *, *, #261, .F. ) ;
#155 = EDGE_CURVE ( 'NONE', #272, #272, #1, .T. ) ;
#156 = CIRCLE ( 'NONE', #113, 1.050000000000000044 ) ;
#157 = VERTEX_POINT ( 'NONE', #114 ) ;
#158 = APPROVAL_DATE_TIME ( #138, #176 ) ;
#159 = AXIS2_PLACEMENT_3D ( 'NONE', #269, #266, #19 ) ;
#160 = DIRECTION ( 'NONE',  ( 0.0000000000000000000, 1.000000000000000000, 0.0000000000000000000 ) ) ;
#161 = CIRCLE ( 'NONE', #285, 1.049999999999998934 ) ;
#162 = DIRECTION ( 'NONE',  ( -3.491481338843133355E-15, 1.224646799147353207E-16, -1.000000000000000000 ) ) ;
#163 = LOCAL_TIME ( 15, 3, 38.00000000000000000, #80 ) ;
#164 = EDGE_LOOP ( 'NONE', ( #172 ) ) ;
#165 = DIRECTION ( 'NONE',  ( -3.491481338843133355E-15, 1.224646799147353207E-16, -1.000000000000000000 ) ) ;
#166 = ORIENTED_EDGE ( 'NONE', *, *, #303, .F. ) ;
#167 = CC_DESIGN_PERSON_AND_ORGANIZATION_ASSIGNMENT ( #81, #42, ( #26 ) ) ;
#168 = DIRECTION ( 'NONE',  ( 0.0000000000000000000, 1.000000000000000000, 0.0000000000000000000 ) ) ;
#169 = FACE_OUTER_BOUND ( 'NONE', #10, .T. ) ;
#170 = CLOSED_SHELL ( 'NONE', ( #63, #95, #140, #41 ) ) ;
#171 = VERTEX_POINT ( 'NONE', #290 ) ;
#172 = ORIENTED_EDGE ( 'NONE', *, *, #257, .T. ) ;
#173 = CC_DESIGN_APPROVAL ( #70, ( #26 ) ) ;
#174 = DIRECTION ( 'NONE',  ( -4.275831445896958607E-31, -1.000000000000000000, -1.224646799147353207E-16 ) ) ;
#175 = PERSON_AND_ORGANIZATION ( #283, #86 ) ;
#176 = APPROVAL ( #2, 'UNSPECIFIED' ) ;
#177 = APPROVAL_STATUS ( 'not_yet_approved' ) ;
#178 = MANIFOLD_SOLID_BREP ( 'Corps-Déplacer/Copier1[2]', #170 ) ;
#179 = SECURITY_CLASSIFICATION ( '', '', #214 ) ;
#180 = CC_DESIGN_DATE_AND_TIME_ASSIGNMENT ( #240, #253, ( #179 ) ) ;
#181 = CIRCLE ( 'NONE', #237, 1.500000000000001554 ) ;
#182 = CYLINDRICAL_SURFACE ( 'NONE', #202, 0.8999999999999991340 ) ;
#183 = ORIENTED_EDGE ( 'NONE', *, *, #265, .F. ) ;
#184 = DIRECTION ( 'NONE',  ( 3.668437989309024280E-31, 1.000000000000000000, 1.032573497605243334E-16 ) ) ;
#185 = AXIS2_PLACEMENT_3D ( 'NONE', #254, #16, #120 ) ;
#186 = PLANE ( 'NONE',  #77 ) ;
#187 = AXIS2_PLACEMENT_3D ( 'NONE', #286, #162, #15 ) ;
#188 = PLANE ( 'NONE',  #109 ) ;
#189 = CC_DESIGN_PERSON_AND_ORGANIZATION_ASSIGNMENT ( #7, #212, ( #88 ) ) ;
#190 = CARTESIAN_POINT ( 'NONE',  ( 6.405924284287275164E-14, -2.246895775456749140E-15, 18.34729635533384595 ) ) ;
#191 = DIRECTION ( 'NONE',  ( 4.275831445896958607E-31, 1.000000000000000000, 1.224646799147353207E-16 ) ) ;
#192 = CARTESIAN_POINT ( 'NONE',  ( 2.793185071074506684E-14, 7.873738858974736020E-33, 8.000000000000000000 ) ) ;
#193 = DIRECTION ( 'NONE',  ( -4.275831445896958607E-31, -1.000000000000000000, -1.224646799147353207E-16 ) ) ;
#194 = DIRECTION ( 'NONE',  ( -3.491481338843133355E-15, 1.224646799147353207E-16, -1.000000000000000000 ) ) ;
#195 = ADVANCED_FACE ( 'NONE', ( #293, #227 ), #139, .T. ) ;
#196 = DIRECTION ( 'NONE',  ( 3.491481338843133355E-15, -1.224646799147353207E-16, 1.000000000000000000 ) ) ;
#197 = PERSON_AND_ORGANIZATION ( #283, #86 ) ;
#198 = APPROVAL_PERSON_ORGANIZATION ( #197, #298, #3 ) ;
#199 =( LENGTH_UNIT ( ) NAMED_UNIT ( * ) SI_UNIT ( .MILLI., .METRE. ) );
#200 = DIRECTION ( 'NONE',  ( 3.491481338843133355E-15, -1.224646799147353207E-16, 1.000000000000000000 ) ) ;
#201 = VERTEX_POINT ( 'NONE', #65 ) ;
#202 = AXIS2_PLACEMENT_3D ( 'NONE', #225, #121, #191 ) ;
#203 = APPLICATION_PROTOCOL_DEFINITION ( 'international standard', 'config_control_design', 1994, #255 ) ;
#204 = ADVANCED_FACE ( 'NONE', ( #142 ), #188, .F. ) ;
#205 = CALENDAR_DATE ( 2021, 1, 12 ) ;
#206 =( NAMED_UNIT ( * ) SI_UNIT ( $, .STERADIAN. ) SOLID_ANGLE_UNIT ( ) );
#207 = COORDINATED_UNIVERSAL_TIME_OFFSET ( 1, 0, .AHEAD. ) ;
#208 = CONICAL_SURFACE ( 'NONE', #61, 1.499999999999996669, 0.1745329251994263142 ) ;
#209 = EDGE_CURVE ( 'NONE', #249, #249, #260, .T. ) ;
#210 = AXIS2_PLACEMENT_3D ( 'NONE', #40, #200, #230 ) ;
#211 = PERSON_AND_ORGANIZATION ( #283, #86 ) ;
#212 = PERSON_AND_ORGANIZATION_ROLE ( 'design_owner' ) ;
#213 = AXIS2_PLACEMENT_3D ( 'NONE', #105, #194, #245 ) ;
#214 = SECURITY_CLASSIFICATION_LEVEL ( 'unclassified' ) ;
#215 = CARTESIAN_POINT ( 'NONE',  ( 2.793185071074506684E-14, 1.049999999999998934, 8.000000000000000000 ) ) ;
#216 = APPROVAL_PERSON_ORGANIZATION ( #91, #70, #5 ) ;
#217 = FACE_OUTER_BOUND ( 'NONE', #148, .T. ) ;
#218 = FACE_BOUND ( 'NONE', #73, .T. ) ;
#219 = PERSON_AND_ORGANIZATION_ROLE ( 'design_supplier' ) ;
#220 = EDGE_CURVE ( 'NONE', #171, #171, #161, .T. ) ;
#221 = FACE_OUTER_BOUND ( 'NONE', #66, .T. ) ;
#222 = FACE_OUTER_BOUND ( 'NONE', #103, .T. ) ;
#223 = CIRCLE ( 'NONE', #149, 1.499999999999996669 ) ;
#224 = CALENDAR_DATE ( 2021, 1, 12 ) ;
#225 = CARTESIAN_POINT ( 'NONE',  ( 0.0000000000000000000, 0.0000000000000000000, 0.0000000000000000000 ) ) ;
#226 = DIRECTION ( 'NONE',  ( 0.0000000000000000000, 1.000000000000000000, 0.0000000000000000000 ) ) ;
#227 = FACE_BOUND ( 'NONE', #101, .T. ) ;
#228 = ORIENTED_EDGE ( 'NONE', *, *, #265, .T. ) ;
#229 = PLANE ( 'NONE',  #132 ) ;
#230 = DIRECTION ( 'NONE',  ( -3.668437989309024280E-31, -1.000000000000000000, -1.032573497605243334E-16 ) ) ;
#231 = APPROVAL_STATUS ( 'not_yet_approved' ) ;
#232 = PRODUCT_DEFINITION_FORMATION_WITH_SPECIFIED_SOURCE ( 'ANY', '', #88, .NOT_KNOWN. ) ;
#233 = CARTESIAN_POINT ( 'NONE',  ( 2.883896417162833076E-14, 0.8999999999999975797, 8.259807621135339062 ) ) ;
#234 = DIRECTION ( 'NONE',  ( 0.0000000000000000000, 0.0000000000000000000, 1.000000000000000000 ) ) ;
#235 = CARTESIAN_POINT ( 'NONE',  ( -1.892735826383161356E-31, 0.9056624327025944998, -5.421010862427522170E-17 ) ) ;
#236 = CLOSED_SHELL ( 'NONE', ( #204, #195, #118, #47, #53, #150, #11, #87 ) ) ;
#237 = AXIS2_PLACEMENT_3D ( 'NONE', #17, #151, #54 ) ;
#238 = CALENDAR_DATE ( 2021, 1, 12 ) ;
#239 = AXIS2_PLACEMENT_3D ( 'NONE', #69, #165, #35 ) ;
#240 = DATE_AND_TIME ( #224, #163 ) ;
#241 = EDGE_LOOP ( 'NONE', ( #37 ) ) ;
#242 = DIRECTION ( 'NONE',  ( -3.491481338843133355E-15, 1.224646799147353207E-16, -1.000000000000000000 ) ) ;
#243 = CC_DESIGN_DATE_AND_TIME_ASSIGNMENT ( #129, #276, ( #26 ) ) ;
#244 = CARTESIAN_POINT ( 'NONE',  ( 6.284666409917640040E-14, -2.204364238465235428E-15, 18.00000000000000000 ) ) ;
#245 = DIRECTION ( 'NONE',  ( 0.0000000000000000000, 1.000000000000000000, 0.0000000000000000000 ) ) ;
#246 = DIRECTION ( 'NONE',  ( 0.0000000000000000000, 1.000000000000000000, 0.0000000000000000000 ) ) ;
#247 = EDGE_LOOP ( 'NONE', ( #55 ) ) ;
#248 = AXIS2_PLACEMENT_3D ( 'NONE', #264, #56, #144 ) ;
#249 = VERTEX_POINT ( 'NONE', #36 ) ;
#250 = EDGE_LOOP ( 'NONE', ( #145 ) ) ;
#251 = CC_DESIGN_PERSON_AND_ORGANIZATION_ASSIGNMENT ( #85, #21, ( #232 ) ) ;
#252 = FACE_BOUND ( 'NONE', #57, .T. ) ;
#253 = DATE_TIME_ROLE ( 'classification_date' ) ;
#254 = CARTESIAN_POINT ( 'NONE',  ( 1.745740669421566678E-13, 8.998558695971067645E-33, 50.00000000000000000 ) ) ;
#255 = APPLICATION_CONTEXT ( 'configuration controlled 3d designs of mechanical parts and assemblies' ) ;
#256 = CC_DESIGN_APPROVAL ( #176, ( #179 ) ) ;
#257 = EDGE_CURVE ( 'NONE', #29, #29, #156, .T. ) ;
#258 = LOCAL_TIME ( 15, 3, 38.00000000000000000, #282 ) ;
#259 = LOCAL_TIME ( 15, 3, 38.00000000000000000, #43 ) ;
#260 = CIRCLE ( 'NONE', #123, 0.8999999999999998002 ) ;
#261 = EDGE_CURVE ( 'NONE', #278, #278, #62, .T. ) ;
#262 = LOCAL_TIME ( 15, 3, 38.00000000000000000, #207 ) ;
#263 = AXIS2_PLACEMENT_3D ( 'NONE', #38, #131, #294 ) ;
#264 = CARTESIAN_POINT ( 'NONE',  ( 0.0000000000000000000, 0.0000000000000000000, 0.0000000000000000000 ) ) ;
#265 = EDGE_CURVE ( 'NONE', #135, #135, #99, .T. ) ;
#266 = DIRECTION ( 'NONE',  ( -3.491481338843133355E-15, 1.224646799147353207E-16, -1.000000000000000000 ) ) ;
#267 = EDGE_LOOP ( 'NONE', ( #128 ) ) ;
#268 = APPLICATION_CONTEXT ( 'configuration controlled 3d designs of mechanical parts and assemblies' ) ;
#269 = CARTESIAN_POINT ( 'NONE',  ( 2.883896417162833076E-14, -1.011534696479630540E-15, 8.259807621135339062 ) ) ;
#270 = EDGE_LOOP ( 'NONE', ( #71 ) ) ;
#271 = CALENDAR_DATE ( 2021, 1, 12 ) ;
#272 = VERTEX_POINT ( 'NONE', #119 ) ;
#273 = CARTESIAN_POINT ( 'NONE',  ( 7.533829895560830494E-14, -2.642511808462434453E-15, 21.57774641882258493 ) ) ;
#274 = DIRECTION ( 'NONE',  ( 4.275831445896958607E-31, 1.000000000000000000, 1.224646799147353454E-16 ) ) ;
#275 = ORIENTED_EDGE ( 'NONE', *, *, #220, .T. ) ;
#276 = DATE_TIME_ROLE ( 'creation_date' ) ;
#277 = EDGE_LOOP ( 'NONE', ( #6 ) ) ;
#278 = VERTEX_POINT ( 'NONE', #235 ) ;
#279 =( GEOMETRIC_REPRESENTATION_CONTEXT ( 3 ) GLOBAL_UNCERTAINTY_ASSIGNED_CONTEXT ( ( #64 ) ) GLOBAL_UNIT_ASSIGNED_CONTEXT ( ( #199, #302, #206 ) ) REPRESENTATION_CONTEXT ( 'NONE', 'WORKASPACE' ) );
#280 = LOCAL_TIME ( 15, 3, 38.00000000000000000, #28 ) ;
#281 = EDGE_CURVE ( 'NONE', #201, #201, #25, .T. ) ;
#282 = COORDINATED_UNIVERSAL_TIME_OFFSET ( 1, 0, .AHEAD. ) ;
#283 = PERSON ( 'UNSPECIFIED', 'UNSPECIFIED', 'UNSPECIFIED', ('UNSPECIFIED'), ('UNSPECIFIED'), ('UNSPECIFIED') ) ;
#284 = EDGE_LOOP ( 'NONE', ( #166 ) ) ;
#285 = AXIS2_PLACEMENT_3D ( 'NONE', #153, #242, #184 ) ;
#286 = CARTESIAN_POINT ( 'NONE',  ( 2.793185071074506684E-14, -9.797174393178825657E-16, 8.000000000000000000 ) ) ;
#287 = ORIENTED_EDGE ( 'NONE', *, *, #220, .F. ) ;
#288 = CIRCLE ( 'NONE', #98, 0.9303844939755799848 ) ;
#289 = AXIS2_PLACEMENT_3D ( 'NONE', #124, #30, #160 ) ;
#290 = CARTESIAN_POINT ( 'NONE',  ( 8.728703347107835360E-16, 1.049999999999998934, 0.2500000000000000555 ) ) ;
#291 = ORIENTED_EDGE ( 'NONE', *, *, #155, .F. ) ;
#292 = ADVANCED_BREP_SHAPE_REPRESENTATION ( '200711', ( #295, #178, #46 ), #279 ) ;
#293 = FACE_OUTER_BOUND ( 'NONE', #250, .T. ) ;
#294 = DIRECTION ( 'NONE',  ( 4.275831445896958607E-31, 1.000000000000000000, 1.224646799147353207E-16 ) ) ;
#295 = MANIFOLD_SOLID_BREP ( 'Corps-Déplacer/Copier1[1]', #236 ) ;
#296 = CARTESIAN_POINT ( 'NONE',  ( 7.533829895560830494E-14, 1.499999999999994005, 21.57774641882258493 ) ) ;
#297 = FACE_OUTER_BOUND ( 'NONE', #270, .T. ) ;
#298 = APPROVAL ( #231, 'UNSPECIFIED' ) ;
#299 = CARTESIAN_POINT ( 'NONE',  ( 0.0000000000000000000, 0.0000000000000000000, 0.0000000000000000000 ) ) ;
#300 = DIRECTION ( 'NONE',  ( 3.491481338843133355E-15, -1.224646799147353207E-16, 1.000000000000000000 ) ) ;
#301 = DIRECTION ( 'NONE',  ( 3.491481338843133355E-15, -1.224646799147353207E-16, 1.000000000000000000 ) ) ;
#302 =( NAMED_UNIT ( * ) PLANE_ANGLE_UNIT ( ) SI_UNIT ( $, .RADIAN. ) );
#303 = EDGE_CURVE ( 'NONE', #157, #157, #181, .T. ) ;
ENDSEC;
END-ISO-10303-21;
