ISO-10303-21;
HEADER;
FILE_DESCRIPTION (( 'STEP AP203' ),
    '1' );
FILE_NAME ('200710.step',
    '2021-12-02T07:09:09',
    ( '' ),
    ( '' ),
    'SwSTEP 2.0',
    'SolidWorks 2019',
    '' );
FILE_SCHEMA (( 'CONFIG_CONTROL_DESIGN' ));
ENDSEC;

DATA;
#1 = FACE_OUTER_BOUND ( 'NONE', #198, .T. ) ;
#2 = CALENDAR_DATE ( 2021, 2, 12 ) ;
#3 = AXIS2_PLACEMENT_3D ( 'NONE', #112, #15, #201 ) ;
#4 = APPROVAL_PERSON_ORGANIZATION ( #104, #300, #106 ) ;
#5 = ORGANIZATION ( 'UNSPECIFIED', 'UNSPECIFIED', '' ) ;
#6 = DATE_AND_TIME ( #131, #114 ) ;
#7 = EDGE_LOOP ( 'NONE', ( #246 ) ) ;
#8 = PERSON_AND_ORGANIZATION ( #278, #5 ) ;
#9 = FACE_OUTER_BOUND ( 'NONE', #154, .T. ) ;
#10 = ORIENTED_EDGE ( 'NONE', *, *, #51, .F. ) ;
#11 = AXIS2_PLACEMENT_3D ( 'NONE', #182, #272, #204 ) ;
#12 = CC_DESIGN_DATE_AND_TIME_ASSIGNMENT ( #30, #287, ( #83 ) ) ;
#13 = ORIENTED_EDGE ( 'NONE', *, *, #25, .T. ) ;
#14 = ORIENTED_EDGE ( 'NONE', *, *, #177, .T. ) ;
#15 = DIRECTION ( 'NONE',  ( -3.491481338843133355E-15, 1.224646799147353454E-16, -1.000000000000000000 ) ) ;
#16 = AXIS2_PLACEMENT_3D ( 'NONE', #67, #44, #68 ) ;
#17 = DIRECTION ( 'NONE',  ( 0.0000000000000000000, 1.000000000000000000, 0.0000000000000000000 ) ) ;
#18 = APPLICATION_CONTEXT ( 'configuration controlled 3d designs of mechanical parts and assemblies' ) ;
#19 = FACE_OUTER_BOUND ( 'NONE', #84, .T. ) ;
#20 = CLOSED_SHELL ( 'NONE', ( #270, #103, #36, #100, #21, #192, #273, #220 ) ) ;
#21 = ADVANCED_FACE ( 'NONE', ( #219, #9 ), #53, .T. ) ;
#22 = CARTESIAN_POINT ( 'NONE',  ( 7.935108543721709220E-14, -2.783261411380039511E-15, 22.72705414587988670 ) ) ;
#23 = DIRECTION ( 'NONE',  ( -4.275831445896959482E-31, -1.000000000000000000, -1.224646799147353454E-16 ) ) ;
#24 = PLANE ( 'NONE',  #89 ) ;
#25 = EDGE_CURVE ( 'NONE', #254, #254, #164, .T. ) ;
#26 = CIRCLE ( 'NONE', #16, 1.259999999999998677 ) ;
#27 = CARTESIAN_POINT ( 'NONE',  ( 2.129803616694311221E-13, -7.470345474798856659E-15, 61.00000000000000000 ) ) ;
#28 = VERTEX_POINT ( 'NONE', #238 ) ;
#29 = DIRECTION ( 'NONE',  ( -3.491481338843133355E-15, 1.224646799147353454E-16, -1.000000000000000000 ) ) ;
#30 = DATE_AND_TIME ( #239, #48 ) ;
#31 = CC_DESIGN_APPROVAL ( #247, ( #83 ) ) ;
#32 = EDGE_LOOP ( 'NONE', ( #102 ) ) ;
#33 = DATE_AND_TIME ( #242, #126 ) ;
#34 = ORIENTED_EDGE ( 'NONE', *, *, #138, .T. ) ;
#35 = ORIENTED_EDGE ( 'NONE', *, *, #135, .F. ) ;
#36 = ADVANCED_FACE ( 'NONE', ( #244, #57 ), #217, .T. ) ;
#37 = EDGE_LOOP ( 'NONE', ( #34 ) ) ;
#38 = APPROVAL_PERSON_ORGANIZATION ( #80, #247, #216 ) ;
#39 = PERSON_AND_ORGANIZATION_ROLE ( 'design_owner' ) ;
#40 = CARTESIAN_POINT ( 'NONE',  ( 7.104220552055901835E-14, -2.491825135286220620E-15, 20.34729635533384595 ) ) ;
#41 = DIRECTION ( 'NONE',  ( -3.491481338843133355E-15, 1.224646799147353454E-16, -1.000000000000000000 ) ) ;
#42 = CIRCLE ( 'NONE', #122, 1.500000000000002887 ) ;
#43 = CYLINDRICAL_SURFACE ( 'NONE', #222, 1.499999999999999112 ) ;
#44 = DIRECTION ( 'NONE',  ( -3.491481338843133355E-15, 1.224646799147353454E-16, -1.000000000000000000 ) ) ;
#45 = CC_DESIGN_PERSON_AND_ORGANIZATION_ASSIGNMENT ( #286, #79, ( #124 ) ) ;
#46 = DIRECTION ( 'NONE',  ( -3.491481338843133355E-15, 1.224646799147353454E-16, -1.000000000000000000 ) ) ;
#47 = AXIS2_PLACEMENT_3D ( 'NONE', #292, #176, #128 ) ;
#48 = LOCAL_TIME ( 8, 9, 9.000000000000000000, #197 ) ;
#49 = APPLICATION_PROTOCOL_DEFINITION ( 'international standard', 'config_control_design', 1994, #18 ) ;
#50 = DESIGN_CONTEXT ( 'detailed design', #279, 'design' ) ;
#51 = EDGE_CURVE ( 'NONE', #190, #190, #26, .T. ) ;
#52 = CARTESIAN_POINT ( 'NONE',  ( 6.982962677686266711E-14, -2.449293598294706907E-15, 20.00000000000000000 ) ) ;
#53 = CONICAL_SURFACE ( 'NONE', #47, 1.499999999999995559, 0.1745329251994265640 ) ;
#54 = DIRECTION ( 'NONE',  ( 3.491481338843133355E-15, -1.224646799147353454E-16, 1.000000000000000000 ) ) ;
#55 = ADVANCED_FACE ( 'NONE', ( #91 ), #94, .T. ) ;
#56 = PERSON_AND_ORGANIZATION ( #278, #5 ) ;
#57 = FACE_OUTER_BOUND ( 'NONE', #225, .T. ) ;
#58 = AXIS2_PLACEMENT_3D ( 'NONE', #184, #116, #119 ) ;
#59 = LOCAL_TIME ( 8, 9, 9.000000000000000000, #266 ) ;
#60 = EDGE_LOOP ( 'NONE', ( #13 ) ) ;
#61 = ADVANCED_FACE ( 'NONE', ( #90, #299 ), #195, .T. ) ;
#62 = DIRECTION ( 'NONE',  ( 0.0000000000000000000, 1.000000000000000000, 0.0000000000000000000 ) ) ;
#63 = CALENDAR_DATE ( 2021, 2, 12 ) ;
#64 = EDGE_LOOP ( 'NONE', ( #35 ) ) ;
#65 = FACE_OUTER_BOUND ( 'NONE', #60, .T. ) ;
#66 = DIRECTION ( 'NONE',  ( -4.275831445896959482E-31, -1.000000000000000000, -1.224646799147353454E-16 ) ) ;
#67 = CARTESIAN_POINT ( 'NONE',  ( 8.728703347107829444E-16, -3.061616997868382402E-17, 0.2499999999999998890 ) ) ;
#68 = DIRECTION ( 'NONE',  ( 4.585547486636280678E-31, 1.000000000000000000, 1.290716872006554259E-16 ) ) ;
#69 = APPROVAL ( #194, 'UNSPECIFIED' ) ;
#70 = EDGE_CURVE ( 'NONE', #285, #285, #199, .T. ) ;
#71 = FACE_BOUND ( 'NONE', #7, .T. ) ;
#72 = CARTESIAN_POINT ( 'NONE',  ( 2.129803616694311221E-13, 1.199999999999995515, 61.00000000000000000 ) ) ;
#73 = CIRCLE ( 'NONE', #107, 1.200000000000002842 ) ;
#74 = VERTEX_POINT ( 'NONE', #125 ) ;
#75 = DIRECTION ( 'NONE',  ( 1.000000000000000000, 0.0000000000000000000, 0.0000000000000000000 ) ) ;
#76 = FACE_BOUND ( 'NONE', #291, .T. ) ;
#77 = CIRCLE ( 'NONE', #118, 1.260000000000000009 ) ;
#78 = CC_DESIGN_PERSON_AND_ORGANIZATION_ASSIGNMENT ( #149, #218, ( #83 ) ) ;
#79 = PERSON_AND_ORGANIZATION_ROLE ( 'creator' ) ;
#80 = PERSON_AND_ORGANIZATION ( #278, #5 ) ;
#81 = ORIENTED_EDGE ( 'NONE', *, *, #260, .T. ) ;
#82 = EDGE_CURVE ( 'NONE', #147, #147, #73, .T. ) ;
#83 = SECURITY_CLASSIFICATION ( '', '', #174 ) ;
#84 = EDGE_LOOP ( 'NONE', ( #85 ) ) ;
#85 = ORIENTED_EDGE ( 'NONE', *, *, #82, .F. ) ;
#86 = DATE_AND_TIME ( #63, #59 ) ;
#87 = EDGE_LOOP ( 'NONE', ( #224 ) ) ;
#88 = CARTESIAN_POINT ( 'NONE',  ( 0.0000000000000000000, 0.0000000000000000000, 0.0000000000000000000 ) ) ;
#89 = AXIS2_PLACEMENT_3D ( 'NONE', #121, #54, #303 ) ;
#90 = FACE_BOUND ( 'NONE', #64, .T. ) ;
#91 = FACE_OUTER_BOUND ( 'NONE', #105, .T. ) ;
#92 = DIRECTION ( 'NONE',  ( 0.0000000000000000000, 1.000000000000000000, 0.0000000000000000000 ) ) ;
#93 = AXIS2_PLACEMENT_3D ( 'NONE', #248, #136, #229 ) ;
#94 = PLANE ( 'NONE',  #297 ) ;
#95 = CARTESIAN_POINT ( 'NONE',  ( 3.491481338843133355E-14, 1.259999999999998677, 10.00000000000000000 ) ) ;
#96 = PLANE ( 'NONE',  #200 ) ;
#97 = AXIS2_PLACEMENT_3D ( 'NONE', #40, #207, #17 ) ;
#98 = CIRCLE ( 'NONE', #259, 1.050000000000000266 ) ;
#99 = FACE_OUTER_BOUND ( 'NONE', #110, .T. ) ;
#100 = ADVANCED_FACE ( 'NONE', ( #226, #232 ), #258, .F. ) ;
#101 = APPROVAL_DATE_TIME ( #6, #247 ) ;
#102 = ORIENTED_EDGE ( 'NONE', *, *, #51, .T. ) ;
#103 = ADVANCED_FACE ( 'NONE', ( #139, #71 ), #205, .T. ) ;
#104 = PERSON_AND_ORGANIZATION ( #278, #5 ) ;
#105 = EDGE_LOOP ( 'NONE', ( #179 ) ) ;
#106 = APPROVAL_ROLE ( '' ) ;
#107 = AXIS2_PLACEMENT_3D ( 'NONE', #160, #277, #92 ) ;
#108 = EDGE_LOOP ( 'NONE', ( #134 ) ) ;
#109 = ORIENTED_EDGE ( 'NONE', *, *, #135, .T. ) ;
#110 = EDGE_LOOP ( 'NONE', ( #289 ) ) ;
#111 = EDGE_CURVE ( 'NONE', #143, #143, #77, .T. ) ;
#112 = CARTESIAN_POINT ( 'NONE',  ( 0.0000000000000000000, 0.0000000000000000000, 0.0000000000000000000 ) ) ;
#113 = CIRCLE ( 'NONE', #58, 1.010000000000001341 ) ;
#114 = LOCAL_TIME ( 8, 9, 9.000000000000000000, #288 ) ;
#115 = DIRECTION ( 'NONE',  ( -3.491481338843133355E-15, 1.224646799147353454E-16, -1.000000000000000000 ) ) ;
#116 = DIRECTION ( 'NONE',  ( -3.491481338843133355E-15, 1.224646799147353454E-16, -1.000000000000000000 ) ) ;
#117 = CARTESIAN_POINT ( 'NONE',  ( 6.982962677686266711E-14, -2.602085213965210642E-15, 20.00000000000000000 ) ) ;
#118 = AXIS2_PLACEMENT_3D ( 'NONE', #158, #251, #296 ) ;
#119 = DIRECTION ( 'NONE',  ( 4.275831445896958607E-31, 1.000000000000000000, 1.224646799147353207E-16 ) ) ;
#120 = CARTESIAN_POINT ( 'NONE',  ( 7.935108543721709220E-14, 1.499999999999992673, 22.72705414587988670 ) ) ;
#121 = CARTESIAN_POINT ( 'NONE',  ( 3.491481338843133355E-14, 9.448486630769688424E-33, 10.00000000000000000 ) ) ;
#122 = AXIS2_PLACEMENT_3D ( 'NONE', #141, #41, #137 ) ;
#123 = DIRECTION ( 'NONE',  ( 0.0000000000000000000, 1.000000000000000000, 0.0000000000000000000 ) ) ;
#124 = PRODUCT_DEFINITION ( 'UNKNOWN', '', #293, #50 ) ;
#125 = CARTESIAN_POINT ( 'NONE',  ( 6.982962677686266711E-14, 1.049999999999998046, 20.00000000000000000 ) ) ;
#126 = LOCAL_TIME ( 8, 9, 9.000000000000000000, #221 ) ;
#127 = PERSON_AND_ORGANIZATION_ROLE ( 'design_supplier' ) ;
#128 = DIRECTION ( 'NONE',  ( 0.0000000000000000000, -1.000000000000000000, 0.0000000000000000000 ) ) ;
#129 = PRODUCT ( '200710', '200710', '', ( #236 ) ) ;
#130 = EDGE_LOOP ( 'NONE', ( #264 ) ) ;
#131 = CALENDAR_DATE ( 2021, 2, 12 ) ;
#132 = ORIENTED_EDGE ( 'NONE', *, *, #163, .F. ) ;
#133 = CC_DESIGN_APPROVAL ( #300, ( #124 ) ) ;
#134 = ORIENTED_EDGE ( 'NONE', *, *, #70, .F. ) ;
#135 = EDGE_CURVE ( 'NONE', #212, #212, #113, .T. ) ;
#136 = DIRECTION ( 'NONE',  ( -3.491481338843133355E-15, 1.224646799147353454E-16, -1.000000000000000000 ) ) ;
#137 = DIRECTION ( 'NONE',  ( 0.0000000000000000000, 1.000000000000000000, 0.0000000000000000000 ) ) ;
#138 = EDGE_CURVE ( 'NONE', #281, #281, #227, .T. ) ;
#139 = FACE_OUTER_BOUND ( 'NONE', #87, .T. ) ;
#140 = DIRECTION ( 'NONE',  ( -3.491481338843133355E-15, 1.224646799147353454E-16, -1.000000000000000000 ) ) ;
#141 = CARTESIAN_POINT ( 'NONE',  ( 2.119329172677781757E-13, -7.433606070824434221E-15, 60.69999999999999574 ) ) ;
#142 = AXIS2_PLACEMENT_3D ( 'NONE', #267, #262, #62 ) ;
#143 = VERTEX_POINT ( 'NONE', #213 ) ;
#144 = DIRECTION ( 'NONE',  ( 0.0000000000000000000, 0.0000000000000000000, 1.000000000000000000 ) ) ;
#145 = DIRECTION ( 'NONE',  ( 3.491481338843133355E-15, -1.224646799147353454E-16, 1.000000000000000000 ) ) ;
#146 = APPROVAL_PERSON_ORGANIZATION ( #214, #69, #268 ) ;
#147 = VERTEX_POINT ( 'NONE', #72 ) ;
#148 = CARTESIAN_POINT ( 'NONE',  ( 0.0000000000000000000, 0.0000000000000000000, 0.0000000000000000000 ) ) ;
#149 = PERSON_AND_ORGANIZATION ( #278, #5 ) ;
#150 = EDGE_LOOP ( 'NONE', ( #10 ) ) ;
#151 = MANIFOLD_SOLID_BREP ( 'Corps-Déplacer/Copier1[2]', #173 ) ;
#152 = APPLICATION_PROTOCOL_DEFINITION ( 'international standard', 'config_control_design', 1994, #279 ) ;
#153 = EDGE_LOOP ( 'NONE', ( #14 ) ) ;
#154 = EDGE_LOOP ( 'NONE', ( #243 ) ) ;
#155 = SHAPE_DEFINITION_REPRESENTATION ( #170, #263 ) ;
#156 = AXIS2_PLACEMENT_3D ( 'NONE', #295, #234, #257 ) ;
#157 = EDGE_LOOP ( 'NONE', ( #290 ) ) ;
#158 = CARTESIAN_POINT ( 'NONE',  ( 3.491481338843133355E-14, -1.224646799147353454E-15, 10.00000000000000000 ) ) ;
#159 = CC_DESIGN_PERSON_AND_ORGANIZATION_ASSIGNMENT ( #223, #171, ( #293 ) ) ;
#160 = CARTESIAN_POINT ( 'NONE',  ( 2.129803616694311221E-13, -7.470345474798856659E-15, 61.00000000000000000 ) ) ;
#161 = CARTESIAN_POINT ( 'NONE',  ( 3.618477223366788537E-14, -1.269190959173800381E-15, 10.36373066958947042 ) ) ;
#162 = DIRECTION ( 'NONE',  ( -3.491481338843133355E-15, 1.224646799147353454E-16, -1.000000000000000000 ) ) ;
#163 = EDGE_CURVE ( 'NONE', #210, #210, #265, .T. ) ;
#164 = CIRCLE ( 'NONE', #142, 1.260000000000000009 ) ;
#165 = CC_DESIGN_PERSON_AND_ORGANIZATION_ASSIGNMENT ( #8, #39, ( #129 ) ) ;
#166 = FACE_OUTER_BOUND ( 'NONE', #175, .T. ) ;
#167 = AXIS2_PLACEMENT_3D ( 'NONE', #117, #274, #252 ) ;
#168 = CC_DESIGN_APPROVAL ( #69, ( #293 ) ) ;
#169 =( NAMED_UNIT ( * ) SI_UNIT ( $, .STERADIAN. ) SOLID_ANGLE_UNIT ( ) );
#170 = PRODUCT_DEFINITION_SHAPE ( 'NONE', 'NONE',  #124 ) ;
#171 = PERSON_AND_ORGANIZATION_ROLE ( 'creator' ) ;
#172 = APPROVAL_DATE_TIME ( #86, #300 ) ;
#173 = CLOSED_SHELL ( 'NONE', ( #231, #61, #215, #55 ) ) ;
#174 = SECURITY_CLASSIFICATION_LEVEL ( 'unclassified' ) ;
#175 = EDGE_LOOP ( 'NONE', ( #193 ) ) ;
#176 = DIRECTION ( 'NONE',  ( 3.491481338843133355E-15, -1.224646799147353454E-16, 1.000000000000000000 ) ) ;
#177 = EDGE_CURVE ( 'NONE', #28, #28, #42, .T. ) ;
#178 = DATE_AND_TIME ( #2, #180 ) ;
#179 = ORIENTED_EDGE ( 'NONE', *, *, #25, .F. ) ;
#180 = LOCAL_TIME ( 8, 9, 9.000000000000000000, #241 ) ;
#181 = DIRECTION ( 'NONE',  ( 0.0000000000000000000, 1.000000000000000000, 0.0000000000000000000 ) ) ;
#182 = CARTESIAN_POINT ( 'NONE',  ( 8.728703347107829444E-16, -3.061616997868382402E-17, 0.2499999999999998890 ) ) ;
#183 = CARTESIAN_POINT ( 'NONE',  ( 3.491481338843133355E-14, 9.448486630769688424E-33, 10.00000000000000000 ) ) ;
#184 = CARTESIAN_POINT ( 'NONE',  ( -5.331181075896116717E-32, 1.869926603254989601E-33, -1.526910946533240962E-17 ) ) ;
#185 = DIRECTION ( 'NONE',  ( 0.0000000000000000000, 1.000000000000000000, 0.0000000000000000000 ) ) ;
#186 = CC_DESIGN_DATE_AND_TIME_ASSIGNMENT ( #33, #245, ( #124 ) ) ;
#187 = DIRECTION ( 'NONE',  ( -3.491481338843133355E-15, 1.224646799147353454E-16, -1.000000000000000000 ) ) ;
#188 = AXIS2_PLACEMENT_3D ( 'NONE', #161, #162, #181 ) ;
#189 =( NAMED_UNIT ( * ) PLANE_ANGLE_UNIT ( ) SI_UNIT ( $, .RADIAN. ) );
#190 = VERTEX_POINT ( 'NONE', #256 ) ;
#191 = APPROVAL_STATUS ( 'not_yet_approved' ) ;
#192 = ADVANCED_FACE ( 'NONE', ( #276, #233 ), #43, .T. ) ;
#193 = ORIENTED_EDGE ( 'NONE', *, *, #111, .T. ) ;
#194 = APPROVAL_STATUS ( 'not_yet_approved' ) ;
#195 = CONICAL_SURFACE ( 'NONE', #11, 1.259999999999998677, 0.7853981633974432830 ) ;
#196 = APPROVAL_STATUS ( 'not_yet_approved' ) ;
#197 = COORDINATED_UNIVERSAL_TIME_OFFSET ( 1, 0, .AHEAD. ) ;
#198 = EDGE_LOOP ( 'NONE', ( #109 ) ) ;
#199 = CIRCLE ( 'NONE', #237, 1.499999999999995559 ) ;
#200 = AXIS2_PLACEMENT_3D ( 'NONE', #301, #145, #23 ) ;
#201 = DIRECTION ( 'NONE',  ( 4.275831445896959482E-31, 1.000000000000000000, 1.224646799147353207E-16 ) ) ;
#202 = PLANE ( 'NONE',  #156 ) ;
#203 = DIRECTION ( 'NONE',  ( 4.275831445896960358E-31, 1.000000000000000000, 1.224646799147353454E-16 ) ) ;
#204 = DIRECTION ( 'NONE',  ( -4.585547486636280678E-31, -1.000000000000000000, -1.290716872006554259E-16 ) ) ;
#205 = CONICAL_SURFACE ( 'NONE', #188, 1.049999999999999156, 0.5235987755982937086 ) ;
#206 = PRODUCT_RELATED_PRODUCT_CATEGORY ( 'detail', '', ( #129 ) ) ;
#207 = DIRECTION ( 'NONE',  ( -3.491481338843133355E-15, 1.224646799147353454E-16, -1.000000000000000000 ) ) ;
#208 = UNCERTAINTY_MEASURE_WITH_UNIT (LENGTH_MEASURE( 1.000000000000000082E-05 ), #283, 'distance_accuracy_value', 'NONE');
#209 = CARTESIAN_POINT ( 'NONE',  ( 3.785471652766322713E-31, 1.010000000000001341, 1.084202172485504434E-16 ) ) ;
#210 = VERTEX_POINT ( 'NONE', #280 ) ;
#211 =( GEOMETRIC_REPRESENTATION_CONTEXT ( 3 ) GLOBAL_UNCERTAINTY_ASSIGNED_CONTEXT ( ( #208 ) ) GLOBAL_UNIT_ASSIGNED_CONTEXT ( ( #283, #189, #169 ) ) REPRESENTATION_CONTEXT ( 'NONE', 'WORKASPACE' ) );
#212 = VERTEX_POINT ( 'NONE', #209 ) ;
#213 = CARTESIAN_POINT ( 'NONE',  ( 3.491481338843133355E-14, 1.259999999999998677, 10.00000000000000000 ) ) ;
#214 = PERSON_AND_ORGANIZATION ( #278, #5 ) ;
#215 = ADVANCED_FACE ( 'NONE', ( #271, #65 ), #230, .T. ) ;
#216 = APPROVAL_ROLE ( '' ) ;
#217 = CYLINDRICAL_SURFACE ( 'NONE', #3, 1.049999999999999822 ) ;
#218 = PERSON_AND_ORGANIZATION_ROLE ( 'classification_officer' ) ;
#219 = FACE_BOUND ( 'NONE', #130, .T. ) ;
#220 = ADVANCED_FACE ( 'NONE', ( #19 ), #202, .F. ) ;
#221 = COORDINATED_UNIVERSAL_TIME_OFFSET ( 1, 0, .AHEAD. ) ;
#222 = AXIS2_PLACEMENT_3D ( 'NONE', #88, #115, #203 ) ;
#223 = PERSON_AND_ORGANIZATION ( #278, #5 ) ;
#224 = ORIENTED_EDGE ( 'NONE', *, *, #111, .F. ) ;
#225 = EDGE_LOOP ( 'NONE', ( #81 ) ) ;
#226 = FACE_OUTER_BOUND ( 'NONE', #157, .T. ) ;
#227 = CIRCLE ( 'NONE', #97, 1.080384493975580007 ) ;
#228 = CC_DESIGN_SECURITY_CLASSIFICATION ( #83, ( #293 ) ) ;
#229 = DIRECTION ( 'NONE',  ( 4.275831445896959482E-31, 1.000000000000000000, 1.224646799147353700E-16 ) ) ;
#230 = CYLINDRICAL_SURFACE ( 'NONE', #93, 1.259999999999999343 ) ;
#231 = ADVANCED_FACE ( 'NONE', ( #1 ), #96, .F. ) ;
#232 = FACE_OUTER_BOUND ( 'NONE', #37, .T. ) ;
#233 = FACE_OUTER_BOUND ( 'NONE', #153, .T. ) ;
#234 = DIRECTION ( 'NONE',  ( -3.491481338843133355E-15, 1.224646799147353454E-16, -1.000000000000000000 ) ) ;
#235 = DIRECTION ( 'NONE',  ( 0.0000000000000000000, 1.000000000000000000, 0.0000000000000000000 ) ) ;
#236 = MECHANICAL_CONTEXT ( 'NONE', #18, 'mechanical' ) ;
#237 = AXIS2_PLACEMENT_3D ( 'NONE', #22, #140, #185 ) ;
#238 = CARTESIAN_POINT ( 'NONE',  ( 2.119329172677781757E-13, 1.499999999999995559, 60.69999999999999574 ) ) ;
#239 = CALENDAR_DATE ( 2021, 2, 12 ) ;
#240 = ORIENTED_EDGE ( 'NONE', *, *, #82, .T. ) ;
#241 = COORDINATED_UNIVERSAL_TIME_OFFSET ( 1, 0, .AHEAD. ) ;
#242 = CALENDAR_DATE ( 2021, 2, 12 ) ;
#243 = ORIENTED_EDGE ( 'NONE', *, *, #70, .T. ) ;
#244 = FACE_OUTER_BOUND ( 'NONE', #269, .T. ) ;
#245 = DATE_TIME_ROLE ( 'creation_date' ) ;
#246 = ORIENTED_EDGE ( 'NONE', *, *, #163, .T. ) ;
#247 = APPROVAL ( #196, 'UNSPECIFIED' ) ;
#248 = CARTESIAN_POINT ( 'NONE',  ( 0.0000000000000000000, 0.0000000000000000000, 0.0000000000000000000 ) ) ;
#249 = MANIFOLD_SOLID_BREP ( 'Corps-Déplacer/Copier1[1]', #20 ) ;
#250 = DIRECTION ( 'NONE',  ( 0.0000000000000000000, 1.000000000000000000, 0.0000000000000000000 ) ) ;
#251 = DIRECTION ( 'NONE',  ( -3.491481338843133355E-15, 1.224646799147353454E-16, -1.000000000000000000 ) ) ;
#252 = DIRECTION ( 'NONE',  ( 4.275831445896959482E-31, 1.000000000000000000, 1.224646799147353454E-16 ) ) ;
#253 = CARTESIAN_POINT ( 'NONE',  ( 3.618477223366788537E-14, -1.269190959173800381E-15, 10.36373066958947042 ) ) ;
#254 = VERTEX_POINT ( 'NONE', #95 ) ;
#255 = AXIS2_PLACEMENT_3D ( 'NONE', #27, #29, #123 ) ;
#256 = CARTESIAN_POINT ( 'NONE',  ( 8.728703347107835360E-16, 1.259999999999998677, 0.2500000000000000555 ) ) ;
#257 = DIRECTION ( 'NONE',  ( 4.275831445896959482E-31, 1.000000000000000000, 1.224646799147353454E-16 ) ) ;
#258 = TOROIDAL_SURFACE ( 'NONE', #167, 3.050000000000000711, 2.000000000000000444 ) ;
#259 = AXIS2_PLACEMENT_3D ( 'NONE', #52, #187, #235 ) ;
#260 = EDGE_CURVE ( 'NONE', #74, #74, #98, .T. ) ;
#261 = APPROVAL_DATE_TIME ( #178, #69 ) ;
#262 = DIRECTION ( 'NONE',  ( -3.491481338843133355E-15, 1.224646799147353454E-16, -1.000000000000000000 ) ) ;
#263 = ADVANCED_BREP_SHAPE_REPRESENTATION ( '200710', ( #249, #151, #275 ), #211 ) ;
#264 = ORIENTED_EDGE ( 'NONE', *, *, #138, .F. ) ;
#265 = CIRCLE ( 'NONE', #302, 1.049999999999999156 ) ;
#266 = COORDINATED_UNIVERSAL_TIME_OFFSET ( 1, 0, .AHEAD. ) ;
#267 = CARTESIAN_POINT ( 'NONE',  ( 3.491481338843133355E-14, -1.224646799147353454E-15, 10.00000000000000000 ) ) ;
#268 = APPROVAL_ROLE ( '' ) ;
#269 = EDGE_LOOP ( 'NONE', ( #132 ) ) ;
#270 = ADVANCED_FACE ( 'NONE', ( #166 ), #24, .F. ) ;
#271 = FACE_OUTER_BOUND ( 'NONE', #150, .T. ) ;
#272 = DIRECTION ( 'NONE',  ( 3.491481338843133355E-15, -1.224646799147353454E-16, 1.000000000000000000 ) ) ;
#273 = ADVANCED_FACE ( 'NONE', ( #99, #76 ), #298, .T. ) ;
#274 = DIRECTION ( 'NONE',  ( -3.491481338843133355E-15, 1.224646799147353454E-16, -1.000000000000000000 ) ) ;
#275 = AXIS2_PLACEMENT_3D ( 'NONE', #148, #144, #75 ) ;
#276 = FACE_OUTER_BOUND ( 'NONE', #108, .T. ) ;
#277 = DIRECTION ( 'NONE',  ( -3.491481338843133355E-15, 1.224646799147353454E-16, -1.000000000000000000 ) ) ;
#278 = PERSON ( 'UNSPECIFIED', 'UNSPECIFIED', 'UNSPECIFIED', ('UNSPECIFIED'), ('UNSPECIFIED'), ('UNSPECIFIED') ) ;
#279 = APPLICATION_CONTEXT ( 'configuration controlled 3d designs of mechanical parts and assemblies' ) ;
#280 = CARTESIAN_POINT ( 'NONE',  ( 3.618477223366788537E-14, 1.049999999999997824, 10.36373066958947042 ) ) ;
#281 = VERTEX_POINT ( 'NONE', #282 ) ;
#282 = CARTESIAN_POINT ( 'NONE',  ( 7.104220552055901835E-14, 1.080384493975577564, 20.34729635533384595 ) ) ;
#283 =( LENGTH_UNIT ( ) NAMED_UNIT ( * ) SI_UNIT ( .MILLI., .METRE. ) );
#284 = CC_DESIGN_PERSON_AND_ORGANIZATION_ASSIGNMENT ( #56, #127, ( #293 ) ) ;
#285 = VERTEX_POINT ( 'NONE', #120 ) ;
#286 = PERSON_AND_ORGANIZATION ( #278, #5 ) ;
#287 = DATE_TIME_ROLE ( 'classification_date' ) ;
#288 = COORDINATED_UNIVERSAL_TIME_OFFSET ( 1, 0, .AHEAD. ) ;
#289 = ORIENTED_EDGE ( 'NONE', *, *, #177, .F. ) ;
#290 = ORIENTED_EDGE ( 'NONE', *, *, #260, .F. ) ;
#291 = EDGE_LOOP ( 'NONE', ( #240 ) ) ;
#292 = CARTESIAN_POINT ( 'NONE',  ( 7.935108543721709220E-14, -2.783261411380039511E-15, 22.72705414587988670 ) ) ;
#293 = PRODUCT_DEFINITION_FORMATION_WITH_SPECIFIED_SOURCE ( 'ANY', '', #129, .NOT_KNOWN. ) ;
#294 = DIRECTION ( 'NONE',  ( 3.491481338843133355E-15, -1.224646799147353454E-16, 1.000000000000000000 ) ) ;
#295 = CARTESIAN_POINT ( 'NONE',  ( 2.129803616694311221E-13, 8.998558695971062171E-33, 61.00000000000000000 ) ) ;
#296 = DIRECTION ( 'NONE',  ( 0.0000000000000000000, 1.000000000000000000, 0.0000000000000000000 ) ) ;
#297 = AXIS2_PLACEMENT_3D ( 'NONE', #183, #294, #66 ) ;
#298 = CONICAL_SURFACE ( 'NONE', #255, 1.200000000000002842, 0.7853981633974453924 ) ;
#299 = FACE_OUTER_BOUND ( 'NONE', #32, .T. ) ;
#300 = APPROVAL ( #191, 'UNSPECIFIED' ) ;
#301 = CARTESIAN_POINT ( 'NONE',  ( -2.665590537948058359E-32, 9.349633016274948005E-34, -7.634554732666204810E-18 ) ) ;
#302 = AXIS2_PLACEMENT_3D ( 'NONE', #253, #46, #250 ) ;
#303 = DIRECTION ( 'NONE',  ( -4.275831445896959482E-31, -1.000000000000000000, -1.224646799147353454E-16 ) ) ;
ENDSEC;
END-ISO-10303-21;
