ISO-10303-21;
HEADER;
FILE_DESCRIPTION (( 'STEP AP203' ),
    '1' );
FILE_NAME ('200709.step',
    '2021-12-02T07:09:09',
    ( '' ),
    ( '' ),
    'SwSTEP 2.0',
    'SolidWorks 2019',
    '' );
FILE_SCHEMA (( 'CONFIG_CONTROL_DESIGN' ));
ENDSEC;

DATA;
#1 = ORIENTED_EDGE ( 'NONE', *, *, #188, .F. ) ;
#2 = CARTESIAN_POINT ( 'NONE',  ( 7.935108543721709220E-14, -2.783261411380039511E-15, 22.72705414587988670 ) ) ;
#3 = ORIENTED_EDGE ( 'NONE', *, *, #57, .T. ) ;
#4 = CARTESIAN_POINT ( 'NONE',  ( 8.728703347107829444E-16, -3.061616997868382402E-17, 0.2499999999999998890 ) ) ;
#5 = COORDINATED_UNIVERSAL_TIME_OFFSET ( 1, 0, .AHEAD. ) ;
#6 = FACE_OUTER_BOUND ( 'NONE', #298, .T. ) ;
#7 = CARTESIAN_POINT ( 'NONE',  ( 3.615453511830511664E-14, -1.268130383935075337E-15, 10.35507041555162644 ) ) ;
#8 = VERTEX_POINT ( 'NONE', #32 ) ;
#9 = PERSON_AND_ORGANIZATION_ROLE ( 'classification_officer' ) ;
#10 = AXIS2_PLACEMENT_3D ( 'NONE', #150, #143, #122 ) ;
#11 = AXIS2_PLACEMENT_3D ( 'NONE', #217, #286, #77 ) ;
#12 = COORDINATED_UNIVERSAL_TIME_OFFSET ( 1, 0, .AHEAD. ) ;
#13 = CC_DESIGN_PERSON_AND_ORGANIZATION_ASSIGNMENT ( #75, #260, ( #111 ) ) ;
#14 = AXIS2_PLACEMENT_3D ( 'NONE', #7, #187, #66 ) ;
#15 = CIRCLE ( 'NONE', #58, 1.499999999999995559 ) ;
#16 = AXIS2_PLACEMENT_3D ( 'NONE', #100, #199, #119 ) ;
#17 = CC_DESIGN_PERSON_AND_ORGANIZATION_ASSIGNMENT ( #293, #174, ( #97 ) ) ;
#18 = ORIENTED_EDGE ( 'NONE', *, *, #188, .T. ) ;
#19 = EDGE_LOOP ( 'NONE', ( #250 ) ) ;
#20 = CARTESIAN_POINT ( 'NONE',  ( 7.104220552055901835E-14, -2.491825135286220620E-15, 20.34729635533384595 ) ) ;
#21 = ADVANCED_FACE ( 'NONE', ( #184 ), #26, .F. ) ;
#22 = DIRECTION ( 'NONE',  ( 3.491481338843133355E-15, -1.224646799147353454E-16, 1.000000000000000000 ) ) ;
#23 = APPROVAL_PERSON_ORGANIZATION ( #105, #145, #131 ) ;
#24 = FACE_OUTER_BOUND ( 'NONE', #67, .T. ) ;
#25 = DIRECTION ( 'NONE',  ( 0.0000000000000000000, 1.000000000000000000, 0.0000000000000000000 ) ) ;
#26 = PLANE ( 'NONE',  #83 ) ;
#27 = FACE_BOUND ( 'NONE', #301, .T. ) ;
#28 = CYLINDRICAL_SURFACE ( 'NONE', #16, 1.499999999999999112 ) ;
#29 = DIRECTION ( 'NONE',  ( -3.491481338843133355E-15, 1.224646799147353454E-16, -1.000000000000000000 ) ) ;
#30 =( LENGTH_UNIT ( ) NAMED_UNIT ( * ) SI_UNIT ( .MILLI., .METRE. ) );
#31 = SECURITY_CLASSIFICATION_LEVEL ( 'unclassified' ) ;
#32 = CARTESIAN_POINT ( 'NONE',  ( 7.104220552055901835E-14, 1.080384493975577564, 20.34729635533384595 ) ) ;
#33 = CALENDAR_DATE ( 2021, 2, 12 ) ;
#34 = CONICAL_SURFACE ( 'NONE', #208, 1.254999999999998561, 0.7853981633974432830 ) ;
#35 = VERTEX_POINT ( 'NONE', #60 ) ;
#36 = ORIENTED_EDGE ( 'NONE', *, *, #108, .F. ) ;
#37 = CARTESIAN_POINT ( 'NONE',  ( 3.491481338843133355E-14, 1.254999999999998561, 10.00000000000000000 ) ) ;
#38 = APPLICATION_CONTEXT ( 'configuration controlled 3d designs of mechanical parts and assemblies' ) ;
#39 = AXIS2_PLACEMENT_3D ( 'NONE', #258, #47, #275 ) ;
#40 = DIRECTION ( 'NONE',  ( 3.491481338843133355E-15, -1.224646799147353454E-16, 1.000000000000000000 ) ) ;
#41 = CC_DESIGN_DATE_AND_TIME_ASSIGNMENT ( #130, #198, ( #197 ) ) ;
#42 = EDGE_LOOP ( 'NONE', ( #63 ) ) ;
#43 = DIRECTION ( 'NONE',  ( 4.275831445896959482E-31, 1.000000000000000000, 1.224646799147353207E-16 ) ) ;
#44 = APPLICATION_CONTEXT ( 'configuration controlled 3d designs of mechanical parts and assemblies' ) ;
#45 = ADVANCED_FACE ( 'NONE', ( #72, #191 ), #274, .F. ) ;
#46 = FACE_BOUND ( 'NONE', #232, .T. ) ;
#47 = DIRECTION ( 'NONE',  ( -3.491481338843133355E-15, 1.224646799147353454E-16, -1.000000000000000000 ) ) ;
#48 = CARTESIAN_POINT ( 'NONE',  ( 2.129803616694311221E-13, 8.998558695971062171E-33, 61.00000000000000000 ) ) ;
#49 = AXIS2_PLACEMENT_3D ( 'NONE', #279, #251, #43 ) ;
#50 = CIRCLE ( 'NONE', #138, 1.254999999999999893 ) ;
#51 = ORIENTED_EDGE ( 'NONE', *, *, #212, .F. ) ;
#52 = FACE_OUTER_BOUND ( 'NONE', #117, .T. ) ;
#53 = DIRECTION ( 'NONE',  ( 0.0000000000000000000, 1.000000000000000000, 0.0000000000000000000 ) ) ;
#54 = DIRECTION ( 'NONE',  ( 0.0000000000000000000, 1.000000000000000000, 0.0000000000000000000 ) ) ;
#55 = LOCAL_TIME ( 8, 9, 9.000000000000000000, #185 ) ;
#56 = DIRECTION ( 'NONE',  ( 0.0000000000000000000, 0.0000000000000000000, 1.000000000000000000 ) ) ;
#57 = EDGE_CURVE ( 'NONE', #82, #82, #110, .T. ) ;
#58 = AXIS2_PLACEMENT_3D ( 'NONE', #166, #261, #25 ) ;
#59 = APPROVAL_PERSON_ORGANIZATION ( #128, #291, #81 ) ;
#60 = CARTESIAN_POINT ( 'NONE',  ( 3.615453511830511664E-14, 1.049999999999997824, 10.35507041555162644 ) ) ;
#61 = CARTESIAN_POINT ( 'NONE',  ( 2.129803616694311221E-13, 1.199999999999995515, 61.00000000000000000 ) ) ;
#62 = ADVANCED_FACE ( 'NONE', ( #144, #24 ), #165, .T. ) ;
#63 = ORIENTED_EDGE ( 'NONE', *, *, #108, .T. ) ;
#64 = LOCAL_TIME ( 8, 9, 9.000000000000000000, #12 ) ;
#65 = ORIENTED_EDGE ( 'NONE', *, *, #79, .F. ) ;
#66 = DIRECTION ( 'NONE',  ( 0.0000000000000000000, 1.000000000000000000, 0.0000000000000000000 ) ) ;
#67 = EDGE_LOOP ( 'NONE', ( #186 ) ) ;
#68 = DIRECTION ( 'NONE',  ( 3.491481338843133355E-15, -1.224646799147353454E-16, 1.000000000000000000 ) ) ;
#69 = DIRECTION ( 'NONE',  ( -3.491481338843133355E-15, 1.224646799147353454E-16, -1.000000000000000000 ) ) ;
#70 = CARTESIAN_POINT ( 'NONE',  ( 3.491481338843133355E-14, 9.410992636203138973E-33, 10.00000000000000000 ) ) ;
#71 = AXIS2_PLACEMENT_3D ( 'NONE', #192, #285, #282 ) ;
#72 = FACE_OUTER_BOUND ( 'NONE', #116, .T. ) ;
#73 = PRODUCT_RELATED_PRODUCT_CATEGORY ( 'detail', '', ( #123 ) ) ;
#74 = CARTESIAN_POINT ( 'NONE',  ( 2.129803616694311221E-13, -7.470345474798856659E-15, 61.00000000000000000 ) ) ;
#75 = PERSON_AND_ORGANIZATION ( #272, #300 ) ;
#76 = DIRECTION ( 'NONE',  ( -3.491481338843133355E-15, 1.224646799147353454E-16, -1.000000000000000000 ) ) ;
#77 = DIRECTION ( 'NONE',  ( 0.0000000000000000000, 1.000000000000000000, 0.0000000000000000000 ) ) ;
#78 = APPLICATION_PROTOCOL_DEFINITION ( 'international standard', 'config_control_design', 1994, #38 ) ;
#79 = EDGE_CURVE ( 'NONE', #8, #8, #112, .T. ) ;
#80 = COORDINATED_UNIVERSAL_TIME_OFFSET ( 1, 0, .AHEAD. ) ;
#81 = APPROVAL_ROLE ( '' ) ;
#82 = VERTEX_POINT ( 'NONE', #37 ) ;
#83 = AXIS2_PLACEMENT_3D ( 'NONE', #297, #94, #87 ) ;
#84 = CALENDAR_DATE ( 2021, 2, 12 ) ;
#85 = CC_DESIGN_PERSON_AND_ORGANIZATION_ASSIGNMENT ( #264, #267, ( #111 ) ) ;
#86 = PLANE ( 'NONE',  #284 ) ;
#87 = DIRECTION ( 'NONE',  ( -4.275831445896959482E-31, -1.000000000000000000, -1.224646799147353454E-16 ) ) ;
#88 = DESIGN_CONTEXT ( 'detailed design', #44, 'design' ) ;
#89 = EDGE_LOOP ( 'NONE', ( #195 ) ) ;
#90 = AXIS2_PLACEMENT_3D ( 'NONE', #167, #253, #273 ) ;
#91 = LOCAL_TIME ( 8, 9, 9.000000000000000000, #5 ) ;
#92 = EDGE_LOOP ( 'NONE', ( #36 ) ) ;
#93 = DIRECTION ( 'NONE',  ( -4.275831445896959482E-31, -1.000000000000000000, -1.224646799147353454E-16 ) ) ;
#94 = DIRECTION ( 'NONE',  ( 3.491481338843133355E-15, -1.224646799147353454E-16, 1.000000000000000000 ) ) ;
#95 = CARTESIAN_POINT ( 'NONE',  ( 3.615453511830511664E-14, -1.268130383935075337E-15, 10.35507041555162644 ) ) ;
#96 = ORIENTED_EDGE ( 'NONE', *, *, #135, .T. ) ;
#97 = PRODUCT_DEFINITION ( 'UNKNOWN', '', #111, #88 ) ;
#98 = DIRECTION ( 'NONE',  ( 4.275831445896959482E-31, 1.000000000000000000, 1.224646799147353454E-16 ) ) ;
#99 = ADVANCED_BREP_SHAPE_REPRESENTATION ( '200709', ( #194, #193, #205 ), #159 ) ;
#100 = CARTESIAN_POINT ( 'NONE',  ( 0.0000000000000000000, 0.0000000000000000000, 0.0000000000000000000 ) ) ;
#101 = VERTEX_POINT ( 'NONE', #269 ) ;
#102 = PERSON_AND_ORGANIZATION ( #272, #300 ) ;
#103 = AXIS2_PLACEMENT_3D ( 'NONE', #206, #76, #238 ) ;
#104 = AXIS2_PLACEMENT_3D ( 'NONE', #2, #239, #153 ) ;
#105 = PERSON_AND_ORGANIZATION ( #272, #300 ) ;
#106 = CARTESIAN_POINT ( 'NONE',  ( 6.982962677686266711E-14, 1.049999999999998046, 20.00000000000000000 ) ) ;
#107 = ORIENTED_EDGE ( 'NONE', *, *, #280, .F. ) ;
#108 = EDGE_CURVE ( 'NONE', #249, #249, #262, .T. ) ;
#109 = APPROVAL_STATUS ( 'not_yet_approved' ) ;
#110 = CIRCLE ( 'NONE', #39, 1.254999999999999893 ) ;
#111 = PRODUCT_DEFINITION_FORMATION_WITH_SPECIFIED_SOURCE ( 'ANY', '', #123, .NOT_KNOWN. ) ;
#112 = CIRCLE ( 'NONE', #235, 1.080384493975580007 ) ;
#113 = CC_DESIGN_SECURITY_CLASSIFICATION ( #197, ( #111 ) ) ;
#114 = DIRECTION ( 'NONE',  ( -4.275831445896959482E-31, -1.000000000000000000, -1.224646799147353454E-16 ) ) ;
#115 = EDGE_LOOP ( 'NONE', ( #3 ) ) ;
#116 = EDGE_LOOP ( 'NONE', ( #107 ) ) ;
#117 = EDGE_LOOP ( 'NONE', ( #211 ) ) ;
#118 = EDGE_LOOP ( 'NONE', ( #231 ) ) ;
#119 = DIRECTION ( 'NONE',  ( 4.275831445896960358E-31, 1.000000000000000000, 1.224646799147353454E-16 ) ) ;
#120 = APPROVAL ( #109, 'UNSPECIFIED' ) ;
#121 = EDGE_LOOP ( 'NONE', ( #96 ) ) ;
#122 = DIRECTION ( 'NONE',  ( 4.275831445896959482E-31, 1.000000000000000000, 1.224646799147353207E-16 ) ) ;
#123 = PRODUCT ( '200709', '200709', '', ( #173 ) ) ;
#124 = DIRECTION ( 'NONE',  ( 0.0000000000000000000, 1.000000000000000000, 0.0000000000000000000 ) ) ;
#125 = COORDINATED_UNIVERSAL_TIME_OFFSET ( 1, 0, .AHEAD. ) ;
#126 = CONICAL_SURFACE ( 'NONE', #14, 1.049999999999999156, 0.5235987755982919323 ) ;
#127 = FACE_OUTER_BOUND ( 'NONE', #92, .T. ) ;
#128 = PERSON_AND_ORGANIZATION ( #272, #300 ) ;
#129 = APPROVAL_DATE_TIME ( #243, #120 ) ;
#130 = DATE_AND_TIME ( #33, #91 ) ;
#131 = APPROVAL_ROLE ( '' ) ;
#132 = CARTESIAN_POINT ( 'NONE',  ( 0.0000000000000000000, 0.0000000000000000000, 0.0000000000000000000 ) ) ;
#133 = ADVANCED_FACE ( 'NONE', ( #296 ), #86, .T. ) ;
#134 = PERSON_AND_ORGANIZATION ( #272, #300 ) ;
#135 = EDGE_CURVE ( 'NONE', #101, #101, #146, .T. ) ;
#136 = ORIENTED_EDGE ( 'NONE', *, *, #183, .T. ) ;
#137 = CC_DESIGN_APPROVAL ( #145, ( #111 ) ) ;
#138 = AXIS2_PLACEMENT_3D ( 'NONE', #257, #169, #54 ) ;
#139 = PRODUCT_DEFINITION_SHAPE ( 'NONE', 'NONE',  #97 ) ;
#140 = EDGE_CURVE ( 'NONE', #176, #176, #224, .T. ) ;
#141 = EDGE_LOOP ( 'NONE', ( #213 ) ) ;
#142 = EDGE_LOOP ( 'NONE', ( #163 ) ) ;
#143 = DIRECTION ( 'NONE',  ( -3.491481338843133355E-15, 1.224646799147353454E-16, -1.000000000000000000 ) ) ;
#144 = FACE_OUTER_BOUND ( 'NONE', #189, .T. ) ;
#145 = APPROVAL ( #289, 'UNSPECIFIED' ) ;
#146 = CIRCLE ( 'NONE', #10, 1.005000000000001226 ) ;
#147 = DIRECTION ( 'NONE',  ( 0.0000000000000000000, 1.000000000000000000, 0.0000000000000000000 ) ) ;
#148 = CIRCLE ( 'NONE', #154, 1.049999999999999156 ) ;
#149 = DIRECTION ( 'NONE',  ( 0.0000000000000000000, 1.000000000000000000, 0.0000000000000000000 ) ) ;
#150 = CARTESIAN_POINT ( 'NONE',  ( -5.117389503601261912E-32, 1.794938614121894120E-33, -1.465678606575871280E-17 ) ) ;
#151 = FACE_OUTER_BOUND ( 'NONE', #283, .T. ) ;
#152 = APPROVAL_STATUS ( 'not_yet_approved' ) ;
#153 = DIRECTION ( 'NONE',  ( 0.0000000000000000000, -1.000000000000000000, 0.0000000000000000000 ) ) ;
#154 = AXIS2_PLACEMENT_3D ( 'NONE', #95, #254, #147 ) ;
#155 = APPLICATION_PROTOCOL_DEFINITION ( 'international standard', 'config_control_design', 1994, #44 ) ;
#156 = VERTEX_POINT ( 'NONE', #160 ) ;
#157 = DATE_AND_TIME ( #177, #179 ) ;
#158 = AXIS2_PLACEMENT_3D ( 'NONE', #74, #190, #124 ) ;
#159 =( GEOMETRIC_REPRESENTATION_CONTEXT ( 3 ) GLOBAL_UNCERTAINTY_ASSIGNED_CONTEXT ( ( #299 ) ) GLOBAL_UNIT_ASSIGNED_CONTEXT ( ( #30, #290, #268 ) ) REPRESENTATION_CONTEXT ( 'NONE', 'WORKASPACE' ) );
#160 = CARTESIAN_POINT ( 'NONE',  ( 2.119329172677781757E-13, 1.499999999999995559, 60.69999999999999574 ) ) ;
#161 = ADVANCED_FACE ( 'NONE', ( #127, #233 ), #170, .T. ) ;
#162 = AXIS2_PLACEMENT_3D ( 'NONE', #172, #29, #53 ) ;
#163 = ORIENTED_EDGE ( 'NONE', *, *, #79, .T. ) ;
#164 = CIRCLE ( 'NONE', #11, 1.050000000000000266 ) ;
#165 = CYLINDRICAL_SURFACE ( 'NONE', #49, 1.049999999999999822 ) ;
#166 = CARTESIAN_POINT ( 'NONE',  ( 7.935108543721709220E-14, -2.783261411380039511E-15, 22.72705414587988670 ) ) ;
#167 = CARTESIAN_POINT ( 'NONE',  ( 6.982962677686266711E-14, -2.602085213965210642E-15, 20.00000000000000000 ) ) ;
#168 = CC_DESIGN_PERSON_AND_ORGANIZATION_ASSIGNMENT ( #223, #248, ( #123 ) ) ;
#169 = DIRECTION ( 'NONE',  ( -3.491481338843133355E-15, 1.224646799147353454E-16, -1.000000000000000000 ) ) ;
#170 = CYLINDRICAL_SURFACE ( 'NONE', #182, 1.254999999999999227 ) ;
#171 = FACE_OUTER_BOUND ( 'NONE', #19, .T. ) ;
#172 = CARTESIAN_POINT ( 'NONE',  ( 2.129803616694311221E-13, -7.470345474798856659E-15, 61.00000000000000000 ) ) ;
#173 = MECHANICAL_CONTEXT ( 'NONE', #38, 'mechanical' ) ;
#174 = PERSON_AND_ORGANIZATION_ROLE ( 'creator' ) ;
#175 = ADVANCED_FACE ( 'NONE', ( #27, #215 ), #34, .T. ) ;
#176 = VERTEX_POINT ( 'NONE', #61 ) ;
#177 = CALENDAR_DATE ( 2021, 2, 12 ) ;
#178 = CARTESIAN_POINT ( 'NONE',  ( 3.491481338843133355E-14, 1.254999999999998561, 10.00000000000000000 ) ) ;
#179 = LOCAL_TIME ( 8, 9, 9.000000000000000000, #125 ) ;
#180 = CARTESIAN_POINT ( 'NONE',  ( 8.728703347107835360E-16, 1.254999999999998561, 0.2500000000000000555 ) ) ;
#181 = CARTESIAN_POINT ( 'NONE',  ( 3.491481338843133355E-14, 9.410992636203138973E-33, 10.00000000000000000 ) ) ;
#182 = AXIS2_PLACEMENT_3D ( 'NONE', #252, #259, #276 ) ;
#183 = EDGE_CURVE ( 'NONE', #156, #156, #255, .T. ) ;
#184 = FACE_OUTER_BOUND ( 'NONE', #121, .T. ) ;
#185 = COORDINATED_UNIVERSAL_TIME_OFFSET ( 1, 0, .AHEAD. ) ;
#186 = ORIENTED_EDGE ( 'NONE', *, *, #280, .T. ) ;
#187 = DIRECTION ( 'NONE',  ( -3.491481338843133355E-15, 1.224646799147353454E-16, -1.000000000000000000 ) ) ;
#188 = EDGE_CURVE ( 'NONE', #266, #266, #15, .T. ) ;
#189 = EDGE_LOOP ( 'NONE', ( #247 ) ) ;
#190 = DIRECTION ( 'NONE',  ( -3.491481338843133355E-15, 1.224646799147353454E-16, -1.000000000000000000 ) ) ;
#191 = FACE_OUTER_BOUND ( 'NONE', #142, .T. ) ;
#192 = CARTESIAN_POINT ( 'NONE',  ( 2.119329172677781757E-13, -7.433606070824434221E-15, 60.69999999999999574 ) ) ;
#193 = MANIFOLD_SOLID_BREP ( 'Corps-Déplacer/Copier1[2]', #201 ) ;
#194 = MANIFOLD_SOLID_BREP ( 'Corps-Déplacer/Copier1[1]', #227 ) ;
#195 = ORIENTED_EDGE ( 'NONE', *, *, #140, .F. ) ;
#196 = PLANE ( 'NONE',  #230 ) ;
#197 = SECURITY_CLASSIFICATION ( '', '', #31 ) ;
#198 = DATE_TIME_ROLE ( 'classification_date' ) ;
#199 = DIRECTION ( 'NONE',  ( -3.491481338843133355E-15, 1.224646799147353454E-16, -1.000000000000000000 ) ) ;
#200 = DATE_AND_TIME ( #288, #55 ) ;
#201 = CLOSED_SHELL ( 'NONE', ( #21, #175, #161, #133 ) ) ;
#202 = CC_DESIGN_APPROVAL ( #291, ( #197 ) ) ;
#203 = DATE_AND_TIME ( #84, #241 ) ;
#204 = CALENDAR_DATE ( 2021, 2, 12 ) ;
#205 = AXIS2_PLACEMENT_3D ( 'NONE', #132, #56, #225 ) ;
#206 = CARTESIAN_POINT ( 'NONE',  ( 8.728703347107829444E-16, -3.061616997868382402E-17, 0.2499999999999998890 ) ) ;
#207 = ADVANCED_FACE ( 'NONE', ( #302 ), #196, .F. ) ;
#208 = AXIS2_PLACEMENT_3D ( 'NONE', #4, #22, #237 ) ;
#209 = ADVANCED_FACE ( 'NONE', ( #171 ), #220, .F. ) ;
#210 = ORIENTED_EDGE ( 'NONE', *, *, #135, .F. ) ;
#211 = ORIENTED_EDGE ( 'NONE', *, *, #183, .F. ) ;
#212 = EDGE_CURVE ( 'NONE', #292, #292, #50, .T. ) ;
#213 = ORIENTED_EDGE ( 'NONE', *, *, #57, .F. ) ;
#214 = CC_DESIGN_APPROVAL ( #120, ( #97 ) ) ;
#215 = FACE_OUTER_BOUND ( 'NONE', #42, .T. ) ;
#216 = EDGE_LOOP ( 'NONE', ( #51 ) ) ;
#217 = CARTESIAN_POINT ( 'NONE',  ( 6.982962677686266711E-14, -2.449293598294706907E-15, 20.00000000000000000 ) ) ;
#218 = EDGE_LOOP ( 'NONE', ( #234 ) ) ;
#219 = DIRECTION ( 'NONE',  ( -3.491481338843133355E-15, 1.224646799147353454E-16, -1.000000000000000000 ) ) ;
#220 = PLANE ( 'NONE',  #287 ) ;
#221 = FACE_BOUND ( 'NONE', #218, .T. ) ;
#222 = ADVANCED_FACE ( 'NONE', ( #52, #278 ), #294, .T. ) ;
#223 = PERSON_AND_ORGANIZATION ( #272, #300 ) ;
#224 = CIRCLE ( 'NONE', #158, 1.200000000000002842 ) ;
#225 = DIRECTION ( 'NONE',  ( 1.000000000000000000, 0.0000000000000000000, 0.0000000000000000000 ) ) ;
#226 = VERTEX_POINT ( 'NONE', #106 ) ;
#227 = CLOSED_SHELL ( 'NONE', ( #209, #295, #62, #45, #229, #270, #222, #207 ) ) ;
#228 = CONICAL_SURFACE ( 'NONE', #104, 1.499999999999995559, 0.1745329251994265640 ) ;
#229 = ADVANCED_FACE ( 'NONE', ( #46, #151 ), #228, .T. ) ;
#230 = AXIS2_PLACEMENT_3D ( 'NONE', #48, #219, #98 ) ;
#231 = ORIENTED_EDGE ( 'NONE', *, *, #140, .T. ) ;
#232 = EDGE_LOOP ( 'NONE', ( #65 ) ) ;
#233 = FACE_OUTER_BOUND ( 'NONE', #115, .T. ) ;
#234 = ORIENTED_EDGE ( 'NONE', *, *, #256, .T. ) ;
#235 = AXIS2_PLACEMENT_3D ( 'NONE', #20, #69, #149 ) ;
#236 = FACE_OUTER_BOUND ( 'NONE', #277, .T. ) ;
#237 = DIRECTION ( 'NONE',  ( -4.603816600128855861E-31, -1.000000000000000000, -1.295859170301401190E-16 ) ) ;
#238 = DIRECTION ( 'NONE',  ( 4.603816600128855861E-31, 1.000000000000000000, 1.295859170301401190E-16 ) ) ;
#239 = DIRECTION ( 'NONE',  ( 3.491481338843133355E-15, -1.224646799147353454E-16, 1.000000000000000000 ) ) ;
#240 = SHAPE_DEFINITION_REPRESENTATION ( #139, #99 ) ;
#241 = LOCAL_TIME ( 8, 9, 9.000000000000000000, #80 ) ;
#242 = FACE_OUTER_BOUND ( 'NONE', #216, .T. ) ;
#243 = DATE_AND_TIME ( #204, #64 ) ;
#244 = APPROVAL_DATE_TIME ( #200, #145 ) ;
#245 = CARTESIAN_POINT ( 'NONE',  ( 7.935108543721709220E-14, 1.499999999999992673, 22.72705414587988670 ) ) ;
#246 = APPROVAL_DATE_TIME ( #157, #291 ) ;
#247 = ORIENTED_EDGE ( 'NONE', *, *, #256, .F. ) ;
#248 = PERSON_AND_ORGANIZATION_ROLE ( 'design_owner' ) ;
#249 = VERTEX_POINT ( 'NONE', #180 ) ;
#250 = ORIENTED_EDGE ( 'NONE', *, *, #212, .T. ) ;
#251 = DIRECTION ( 'NONE',  ( -3.491481338843133355E-15, 1.224646799147353454E-16, -1.000000000000000000 ) ) ;
#252 = CARTESIAN_POINT ( 'NONE',  ( 0.0000000000000000000, 0.0000000000000000000, 0.0000000000000000000 ) ) ;
#253 = DIRECTION ( 'NONE',  ( -3.491481338843133355E-15, 1.224646799147353454E-16, -1.000000000000000000 ) ) ;
#254 = DIRECTION ( 'NONE',  ( -3.491481338843133355E-15, 1.224646799147353454E-16, -1.000000000000000000 ) ) ;
#255 = CIRCLE ( 'NONE', #71, 1.500000000000002887 ) ;
#256 = EDGE_CURVE ( 'NONE', #35, #35, #148, .T. ) ;
#257 = CARTESIAN_POINT ( 'NONE',  ( 3.491481338843133355E-14, -1.224646799147353454E-15, 10.00000000000000000 ) ) ;
#258 = CARTESIAN_POINT ( 'NONE',  ( 3.491481338843133355E-14, -1.224646799147353454E-15, 10.00000000000000000 ) ) ;
#259 = DIRECTION ( 'NONE',  ( -3.491481338843133355E-15, 1.224646799147353454E-16, -1.000000000000000000 ) ) ;
#260 = PERSON_AND_ORGANIZATION_ROLE ( 'creator' ) ;
#261 = DIRECTION ( 'NONE',  ( -3.491481338843133355E-15, 1.224646799147353454E-16, -1.000000000000000000 ) ) ;
#262 = CIRCLE ( 'NONE', #103, 1.254999999999998561 ) ;
#263 = APPROVAL_ROLE ( '' ) ;
#264 = PERSON_AND_ORGANIZATION ( #272, #300 ) ;
#265 = DATE_TIME_ROLE ( 'creation_date' ) ;
#266 = VERTEX_POINT ( 'NONE', #245 ) ;
#267 = PERSON_AND_ORGANIZATION_ROLE ( 'design_supplier' ) ;
#268 =( NAMED_UNIT ( * ) SI_UNIT ( $, .STERADIAN. ) SOLID_ANGLE_UNIT ( ) );
#269 = CARTESIAN_POINT ( 'NONE',  ( 3.785471652766323151E-31, 1.005000000000001226, 1.084202172485504434E-16 ) ) ;
#270 = ADVANCED_FACE ( 'NONE', ( #6, #236 ), #28, .T. ) ;
#271 = APPROVAL_PERSON_ORGANIZATION ( #134, #120, #263 ) ;
#272 = PERSON ( 'UNSPECIFIED', 'UNSPECIFIED', 'UNSPECIFIED', ('UNSPECIFIED'), ('UNSPECIFIED'), ('UNSPECIFIED') ) ;
#273 = DIRECTION ( 'NONE',  ( 4.275831445896959482E-31, 1.000000000000000000, 1.224646799147353454E-16 ) ) ;
#274 = TOROIDAL_SURFACE ( 'NONE', #90, 3.050000000000000711, 2.000000000000000444 ) ;
#275 = DIRECTION ( 'NONE',  ( 0.0000000000000000000, 1.000000000000000000, 0.0000000000000000000 ) ) ;
#276 = DIRECTION ( 'NONE',  ( 4.275831445896959482E-31, 1.000000000000000000, 1.224646799147353207E-16 ) ) ;
#277 = EDGE_LOOP ( 'NONE', ( #136 ) ) ;
#278 = FACE_BOUND ( 'NONE', #118, .T. ) ;
#279 = CARTESIAN_POINT ( 'NONE',  ( 0.0000000000000000000, 0.0000000000000000000, 0.0000000000000000000 ) ) ;
#280 = EDGE_CURVE ( 'NONE', #226, #226, #164, .T. ) ;
#281 = CC_DESIGN_PERSON_AND_ORGANIZATION_ASSIGNMENT ( #102, #9, ( #197 ) ) ;
#282 = DIRECTION ( 'NONE',  ( 0.0000000000000000000, 1.000000000000000000, 0.0000000000000000000 ) ) ;
#283 = EDGE_LOOP ( 'NONE', ( #18 ) ) ;
#284 = AXIS2_PLACEMENT_3D ( 'NONE', #181, #40, #114 ) ;
#285 = DIRECTION ( 'NONE',  ( -3.491481338843133355E-15, 1.224646799147353454E-16, -1.000000000000000000 ) ) ;
#286 = DIRECTION ( 'NONE',  ( -3.491481338843133355E-15, 1.224646799147353454E-16, -1.000000000000000000 ) ) ;
#287 = AXIS2_PLACEMENT_3D ( 'NONE', #70, #68, #93 ) ;
#288 = CALENDAR_DATE ( 2021, 2, 12 ) ;
#289 = APPROVAL_STATUS ( 'not_yet_approved' ) ;
#290 =( NAMED_UNIT ( * ) PLANE_ANGLE_UNIT ( ) SI_UNIT ( $, .RADIAN. ) );
#291 = APPROVAL ( #152, 'UNSPECIFIED' ) ;
#292 = VERTEX_POINT ( 'NONE', #178 ) ;
#293 = PERSON_AND_ORGANIZATION ( #272, #300 ) ;
#294 = CONICAL_SURFACE ( 'NONE', #162, 1.200000000000002842, 0.7853981633974453924 ) ;
#295 = ADVANCED_FACE ( 'NONE', ( #242, #221 ), #126, .T. ) ;
#296 = FACE_OUTER_BOUND ( 'NONE', #141, .T. ) ;
#297 = CARTESIAN_POINT ( 'NONE',  ( -2.558694751800630956E-32, 8.974693070609470602E-34, -7.328393032879356401E-18 ) ) ;
#298 = EDGE_LOOP ( 'NONE', ( #1 ) ) ;
#299 = UNCERTAINTY_MEASURE_WITH_UNIT (LENGTH_MEASURE( 1.000000000000000082E-05 ), #30, 'distance_accuracy_value', 'NONE');
#300 = ORGANIZATION ( 'UNSPECIFIED', 'UNSPECIFIED', '' ) ;
#301 = EDGE_LOOP ( 'NONE', ( #210 ) ) ;
#302 = FACE_OUTER_BOUND ( 'NONE', #89, .T. ) ;
#303 = CC_DESIGN_DATE_AND_TIME_ASSIGNMENT ( #203, #265, ( #97 ) ) ;
ENDSEC;
END-ISO-10303-21;
