ISO-10303-21;
HEADER;
FILE_DESCRIPTION (( 'STEP AP203' ),
    '1' );
FILE_NAME ('200708.step',
    '2021-12-01T14:03:38',
    ( '' ),
    ( '' ),
    'SwSTEP 2.0',
    'SolidWorks 2019',
    '' );
FILE_SCHEMA (( 'CONFIG_CONTROL_DESIGN' ));
ENDSEC;

DATA;
#1 = DIRECTION ( 'NONE',  ( 4.275831445896957731E-31, 1.000000000000000000, 1.224646799147353207E-16 ) ) ;
#2 = ORIENTED_EDGE ( 'NONE', *, *, #134, .F. ) ;
#3 = CARTESIAN_POINT ( 'NONE',  ( 0.0000000000000000000, 0.0000000000000000000, 0.0000000000000000000 ) ) ;
#4 = ORIENTED_EDGE ( 'NONE', *, *, #203, .T. ) ;
#5 = EDGE_LOOP ( 'NONE', ( #148 ) ) ;
#6 = LOCAL_TIME ( 15, 3, 38.00000000000000000, #119 ) ;
#7 = CARTESIAN_POINT ( 'NONE',  ( 1.745740669421566678E-13, -6.123233995736766085E-15, 50.00000000000000000 ) ) ;
#8 = CARTESIAN_POINT ( 'NONE',  ( 7.846003257839388371E-14, -2.752007484306480018E-15, 22.47184646399708896 ) ) ;
#9 = FACE_OUTER_BOUND ( 'NONE', #236, .T. ) ;
#10 =( GEOMETRIC_REPRESENTATION_CONTEXT ( 3 ) GLOBAL_UNCERTAINTY_ASSIGNED_CONTEXT ( ( #73 ) ) GLOBAL_UNIT_ASSIGNED_CONTEXT ( ( #222, #37, #16 ) ) REPRESENTATION_CONTEXT ( 'NONE', 'WORKASPACE' ) );
#11 = CARTESIAN_POINT ( 'NONE',  ( 1.745740669421566678E-13, 8.998558695971067645E-33, 50.00000000000000000 ) ) ;
#12 = CARTESIAN_POINT ( 'NONE',  ( 0.0000000000000000000, 0.0000000000000000000, 0.0000000000000000000 ) ) ;
#13 = ADVANCED_FACE ( 'NONE', ( #283, #264 ), #122, .T. ) ;
#14 = PERSON_AND_ORGANIZATION ( #253, #213 ) ;
#15 = CLOSED_SHELL ( 'NONE', ( #194, #184, #88, #79, #186, #156, #173, #151 ) ) ;
#16 =( NAMED_UNIT ( * ) SI_UNIT ( $, .STERADIAN. ) SOLID_ANGLE_UNIT ( ) );
#17 = DIRECTION ( 'NONE',  ( -4.275831445896958607E-31, -1.000000000000000000, -1.224646799147353207E-16 ) ) ;
#18 = AXIS2_PLACEMENT_3D ( 'NONE', #104, #195, #288 ) ;
#19 = DIRECTION ( 'NONE',  ( 0.0000000000000000000, 0.0000000000000000000, 1.000000000000000000 ) ) ;
#20 = APPROVAL_STATUS ( 'not_yet_approved' ) ;
#21 = ADVANCED_FACE ( 'NONE', ( #168 ), #259, .F. ) ;
#22 = ORIENTED_EDGE ( 'NONE', *, *, #248, .F. ) ;
#23 = AXIS2_PLACEMENT_3D ( 'NONE', #192, #286, #78 ) ;
#24 = ORIENTED_EDGE ( 'NONE', *, *, #206, .F. ) ;
#25 = EDGE_LOOP ( 'NONE', ( #252 ) ) ;
#26 = ORIENTED_EDGE ( 'NONE', *, *, #248, .T. ) ;
#27 = EDGE_LOOP ( 'NONE', ( #96 ) ) ;
#28 = APPROVAL_PERSON_ORGANIZATION ( #231, #275, #207 ) ;
#29 = FACE_OUTER_BOUND ( 'NONE', #5, .T. ) ;
#30 = DIRECTION ( 'NONE',  ( -3.491481338843133355E-15, 1.224646799147353207E-16, -1.000000000000000000 ) ) ;
#31 = APPLICATION_CONTEXT ( 'configuration controlled 3d designs of mechanical parts and assemblies' ) ;
#32 = DIRECTION ( 'NONE',  ( 0.0000000000000000000, 1.000000000000000000, 0.0000000000000000000 ) ) ;
#33 = CIRCLE ( 'NONE', #239, 1.125384493975580824 ) ;
#34 = DIRECTION ( 'NONE',  ( -3.491481338843133355E-15, 1.224646799147353207E-16, -1.000000000000000000 ) ) ;
#35 = CARTESIAN_POINT ( 'NONE',  ( 7.846003257839388371E-14, -2.752007484306480018E-15, 22.47184646399708896 ) ) ;
#36 = PERSON_AND_ORGANIZATION_ROLE ( 'design_supplier' ) ;
#37 =( NAMED_UNIT ( * ) PLANE_ANGLE_UNIT ( ) SI_UNIT ( $, .RADIAN. ) );
#38 = AXIS2_PLACEMENT_3D ( 'NONE', #81, #273, #220 ) ;
#39 = VERTEX_POINT ( 'NONE', #42 ) ;
#40 = PRODUCT_DEFINITION ( 'UNKNOWN', '', #294, #262 ) ;
#41 = PERSON_AND_ORGANIZATION ( #253, #213 ) ;
#42 = CARTESIAN_POINT ( 'NONE',  ( 7.104220552055901835E-14, 1.125384493975578382, 20.34729635533384595 ) ) ;
#43 = AXIS2_PLACEMENT_3D ( 'NONE', #80, #170, #149 ) ;
#44 = CALENDAR_DATE ( 2021, 1, 12 ) ;
#45 = PRODUCT_RELATED_PRODUCT_CATEGORY ( 'detail', '', ( #247 ) ) ;
#46 = ORIENTED_EDGE ( 'NONE', *, *, #176, .T. ) ;
#47 = AXIS2_PLACEMENT_3D ( 'NONE', #7, #56, #245 ) ;
#48 = EDGE_LOOP ( 'NONE', ( #72 ) ) ;
#49 = DIRECTION ( 'NONE',  ( -3.491481338843133355E-15, 1.224646799147353207E-16, -1.000000000000000000 ) ) ;
#50 = ORIENTED_EDGE ( 'NONE', *, *, #176, .F. ) ;
#51 = FACE_BOUND ( 'NONE', #25, .T. ) ;
#52 = AXIS2_PLACEMENT_3D ( 'NONE', #266, #237, #166 ) ;
#53 = LOCAL_TIME ( 15, 3, 38.00000000000000000, #297 ) ;
#54 = CC_DESIGN_PERSON_AND_ORGANIZATION_ASSIGNMENT ( #67, #90, ( #258 ) ) ;
#55 = CARTESIAN_POINT ( 'NONE',  ( 7.104220552055901835E-14, -2.491825135286219831E-15, 20.34729635533384595 ) ) ;
#56 = DIRECTION ( 'NONE',  ( -3.491481338843133355E-15, 1.224646799147353207E-16, -1.000000000000000000 ) ) ;
#57 = FACE_OUTER_BOUND ( 'NONE', #208, .T. ) ;
#58 = AXIS2_PLACEMENT_3D ( 'NONE', #244, #59, #219 ) ;
#59 = DIRECTION ( 'NONE',  ( -3.491481338843133355E-15, 1.224646799147353207E-16, -1.000000000000000000 ) ) ;
#60 = SHAPE_DEFINITION_REPRESENTATION ( #255, #75 ) ;
#61 = PERSON_AND_ORGANIZATION ( #253, #213 ) ;
#62 = CARTESIAN_POINT ( 'NONE',  ( -1.892735826383161356E-31, 1.100662432702594229, -5.421010862427522170E-17 ) ) ;
#63 = CC_DESIGN_DATE_AND_TIME_ASSIGNMENT ( #301, #246, ( #258 ) ) ;
#64 = AXIS2_PLACEMENT_3D ( 'NONE', #85, #178, #216 ) ;
#65 = CC_DESIGN_APPROVAL ( #275, ( #294 ) ) ;
#66 = APPROVAL_DATE_TIME ( #141, #275 ) ;
#67 = PERSON_AND_ORGANIZATION ( #253, #213 ) ;
#68 = APPROVAL_DATE_TIME ( #277, #215 ) ;
#69 = APPROVAL_STATUS ( 'not_yet_approved' ) ;
#70 = APPROVAL_PERSON_ORGANIZATION ( #61, #215, #117 ) ;
#71 = DIRECTION ( 'NONE',  ( 3.491481338843133355E-15, -1.224646799147353207E-16, 1.000000000000000000 ) ) ;
#72 = ORIENTED_EDGE ( 'NONE', *, *, #112, .T. ) ;
#73 = UNCERTAINTY_MEASURE_WITH_UNIT (LENGTH_MEASURE( 1.000000000000000082E-05 ), #222, 'distance_accuracy_value', 'NONE');
#74 = ORIENTED_EDGE ( 'NONE', *, *, #238, .T. ) ;
#75 = ADVANCED_BREP_SHAPE_REPRESENTATION ( '200708', ( #144, #142, #86 ), #10 ) ;
#76 = CC_DESIGN_APPROVAL ( #215, ( #40 ) ) ;
#77 = EDGE_LOOP ( 'NONE', ( #74 ) ) ;
#78 = DIRECTION ( 'NONE',  ( 4.275831445896959482E-31, 1.000000000000000000, 1.224646799147353454E-16 ) ) ;
#79 = ADVANCED_FACE ( 'NONE', ( #101, #123 ), #196, .F. ) ;
#80 = CARTESIAN_POINT ( 'NONE',  ( 3.491481338843133355E-14, -1.224646799147353256E-15, 10.00000000000000000 ) ) ;
#81 = CARTESIAN_POINT ( 'NONE',  ( -6.598982867450358848E-31, 2.314611610935604216E-32, -1.890023811393723453E-16 ) ) ;
#82 = AXIS2_PLACEMENT_3D ( 'NONE', #3, #49, #1 ) ;
#83 = FACE_OUTER_BOUND ( 'NONE', #260, .T. ) ;
#84 = PLANE ( 'NONE',  #257 ) ;
#85 = CARTESIAN_POINT ( 'NONE',  ( 3.491481338843133355E-14, -1.224646799147353256E-15, 10.00000000000000000 ) ) ;
#86 = AXIS2_PLACEMENT_3D ( 'NONE', #300, #19, #298 ) ;
#87 = DATE_TIME_ROLE ( 'creation_date' ) ;
#88 = ADVANCED_FACE ( 'NONE', ( #211, #124 ), #212, .T. ) ;
#89 = CARTESIAN_POINT ( 'NONE',  ( 3.491481338843133355E-14, 1.244999999999998774, 10.00000000000000000 ) ) ;
#90 = PERSON_AND_ORGANIZATION_ROLE ( 'classification_officer' ) ;
#91 = CARTESIAN_POINT ( 'NONE',  ( 3.491481338843133355E-14, 1.244999999999998774, 10.00000000000000000 ) ) ;
#92 = CC_DESIGN_PERSON_AND_ORGANIZATION_ASSIGNMENT ( #299, #36, ( #294 ) ) ;
#93 = VERTEX_POINT ( 'NONE', #137 ) ;
#94 = ORIENTED_EDGE ( 'NONE', *, *, #165, .T. ) ;
#95 = AXIS2_PLACEMENT_3D ( 'NONE', #108, #103, #193 ) ;
#96 = ORIENTED_EDGE ( 'NONE', *, *, #226, .T. ) ;
#97 = EDGE_CURVE ( 'NONE', #136, #136, #278, .T. ) ;
#98 = ORIENTED_EDGE ( 'NONE', *, *, #238, .F. ) ;
#99 = ORIENTED_EDGE ( 'NONE', *, *, #203, .F. ) ;
#100 = CIRCLE ( 'NONE', #43, 1.245000000000000107 ) ;
#101 = FACE_OUTER_BOUND ( 'NONE', #179, .T. ) ;
#102 = APPROVAL ( #109, 'UNSPECIFIED' ) ;
#103 = DIRECTION ( 'NONE',  ( -3.491481338843133355E-15, 1.224646799147353207E-16, -1.000000000000000000 ) ) ;
#104 = CARTESIAN_POINT ( 'NONE',  ( 8.728703347107829444E-16, -3.061616997868381785E-17, 0.2499999999999998890 ) ) ;
#105 = DIRECTION ( 'NONE',  ( 4.275831445896958607E-31, 1.000000000000000000, 1.224646799147353207E-16 ) ) ;
#106 = CIRCLE ( 'NONE', #95, 1.094999999999998863 ) ;
#107 = FACE_OUTER_BOUND ( 'NONE', #233, .T. ) ;
#108 = CARTESIAN_POINT ( 'NONE',  ( 3.582192684931459116E-14, -1.256464056309101033E-15, 10.25980762113533729 ) ) ;
#109 = APPROVAL_STATUS ( 'not_yet_approved' ) ;
#110 = CALENDAR_DATE ( 2021, 1, 12 ) ;
#111 = AXIS2_PLACEMENT_3D ( 'NONE', #11, #30, #105 ) ;
#112 = EDGE_CURVE ( 'NONE', #114, #114, #289, .T. ) ;
#113 = SECURITY_CLASSIFICATION_LEVEL ( 'unclassified' ) ;
#114 = VERTEX_POINT ( 'NONE', #276 ) ;
#115 = APPLICATION_PROTOCOL_DEFINITION ( 'international standard', 'config_control_design', 1994, #31 ) ;
#116 = APPROVAL_ROLE ( '' ) ;
#117 = APPROVAL_ROLE ( '' ) ;
#118 = CONICAL_SURFACE ( 'NONE', #191, 1.499999999999996669, 0.1745329251994263420 ) ;
#119 = COORDINATED_UNIVERSAL_TIME_OFFSET ( 1, 0, .AHEAD. ) ;
#120 = EDGE_LOOP ( 'NONE', ( #2 ) ) ;
#121 = CC_DESIGN_DATE_AND_TIME_ASSIGNMENT ( #296, #87, ( #40 ) ) ;
#122 = CYLINDRICAL_SURFACE ( 'NONE', #82, 1.244999999999999440 ) ;
#123 = FACE_OUTER_BOUND ( 'NONE', #282, .T. ) ;
#124 = FACE_OUTER_BOUND ( 'NONE', #48, .T. ) ;
#125 = LOCAL_TIME ( 15, 3, 38.00000000000000000, #303 ) ;
#126 = CC_DESIGN_SECURITY_CLASSIFICATION ( #258, ( #294 ) ) ;
#127 = ORIENTED_EDGE ( 'NONE', *, *, #206, .T. ) ;
#128 = DIRECTION ( 'NONE',  ( 0.0000000000000000000, 1.000000000000000000, 0.0000000000000000000 ) ) ;
#129 = DIRECTION ( 'NONE',  ( 0.0000000000000000000, 1.000000000000000000, 0.0000000000000000000 ) ) ;
#130 = FACE_OUTER_BOUND ( 'NONE', #190, .T. ) ;
#131 = LOCAL_TIME ( 15, 3, 38.00000000000000000, #185 ) ;
#132 = CARTESIAN_POINT ( 'NONE',  ( 3.491481338843133355E-14, 9.336004647070045545E-33, 10.00000000000000000 ) ) ;
#133 = VERTEX_POINT ( 'NONE', #182 ) ;
#134 = EDGE_CURVE ( 'NONE', #256, #256, #183, .T. ) ;
#135 = DATE_AND_TIME ( #295, #53 ) ;
#136 = VERTEX_POINT ( 'NONE', #251 ) ;
#137 = CARTESIAN_POINT ( 'NONE',  ( 1.735266225405037467E-13, 1.499999999999995559, 49.70000000000000284 ) ) ;
#138 = APPLICATION_PROTOCOL_DEFINITION ( 'international standard', 'config_control_design', 1994, #180 ) ;
#139 = AXIS2_PLACEMENT_3D ( 'NONE', #152, #34, #129 ) ;
#140 = CONICAL_SURFACE ( 'NONE', #47, 1.200000000000001732, 0.7853981633974453924 ) ;
#141 = DATE_AND_TIME ( #44, #6 ) ;
#142 = MANIFOLD_SOLID_BREP ( 'Corps-Déplacer/Copier1[2]', #272 ) ;
#143 = ORIENTED_EDGE ( 'NONE', *, *, #134, .T. ) ;
#144 = MANIFOLD_SOLID_BREP ( 'Corps-Déplacer/Copier1[1]', #15 ) ;
#145 = EDGE_LOOP ( 'NONE', ( #4 ) ) ;
#146 = EDGE_LOOP ( 'NONE', ( #99 ) ) ;
#147 = CARTESIAN_POINT ( 'NONE',  ( -3.299491433725179424E-31, 1.157305805467802108E-32, -9.450119056968617266E-17 ) ) ;
#148 = ORIENTED_EDGE ( 'NONE', *, *, #97, .T. ) ;
#149 = DIRECTION ( 'NONE',  ( 0.0000000000000000000, 1.000000000000000000, 0.0000000000000000000 ) ) ;
#150 = DIRECTION ( 'NONE',  ( -3.491481338843133355E-15, 1.224646799147353207E-16, -1.000000000000000000 ) ) ;
#151 = ADVANCED_FACE ( 'NONE', ( #217 ), #287, .F. ) ;
#152 = CARTESIAN_POINT ( 'NONE',  ( 3.582192684931459116E-14, -1.256464056309101033E-15, 10.25980762113533729 ) ) ;
#153 = DIRECTION ( 'NONE',  ( 0.0000000000000000000, 1.000000000000000000, 0.0000000000000000000 ) ) ;
#154 = AXIS2_PLACEMENT_3D ( 'NONE', #174, #150, #128 ) ;
#155 = CYLINDRICAL_SURFACE ( 'NONE', #159, 1.499999999999999112 ) ;
#156 = ADVANCED_FACE ( 'NONE', ( #242, #9 ), #155, .T. ) ;
#157 = VERTEX_POINT ( 'NONE', #302 ) ;
#158 = PLANE ( 'NONE',  #171 ) ;
#159 = AXIS2_PLACEMENT_3D ( 'NONE', #12, #267, #290 ) ;
#160 = ORIENTED_EDGE ( 'NONE', *, *, #97, .F. ) ;
#161 = APPROVAL_PERSON_ORGANIZATION ( #14, #102, #116 ) ;
#162 = MECHANICAL_CONTEXT ( 'NONE', #31, 'mechanical' ) ;
#163 = PERSON_AND_ORGANIZATION ( #253, #213 ) ;
#164 = CONICAL_SURFACE ( 'NONE', #18, 1.244999999999998774, 0.5235987755982925984 ) ;
#165 = EDGE_CURVE ( 'NONE', #39, #39, #33, .T. ) ;
#166 = DIRECTION ( 'NONE',  ( 4.640795046716235910E-31, 1.000000000000000000, 1.306267677693380226E-16 ) ) ;
#167 = EDGE_LOOP ( 'NONE', ( #160 ) ) ;
#168 = FACE_OUTER_BOUND ( 'NONE', #27, .T. ) ;
#169 = EDGE_LOOP ( 'NONE', ( #209 ) ) ;
#170 = DIRECTION ( 'NONE',  ( -3.491481338843133355E-15, 1.224646799147353207E-16, -1.000000000000000000 ) ) ;
#171 = AXIS2_PLACEMENT_3D ( 'NONE', #274, #225, #17 ) ;
#172 = DIRECTION ( 'NONE',  ( -3.491481338843133355E-15, 1.224646799147353207E-16, -1.000000000000000000 ) ) ;
#173 = ADVANCED_FACE ( 'NONE', ( #83, #270 ), #140, .T. ) ;
#174 = CARTESIAN_POINT ( 'NONE',  ( 6.982962677686266711E-14, -2.449293598294706513E-15, 20.00000000000000000 ) ) ;
#175 = CARTESIAN_POINT ( 'NONE',  ( 1.745740669421566678E-13, -6.123233995736766085E-15, 50.00000000000000000 ) ) ;
#176 = EDGE_CURVE ( 'NONE', #93, #93, #224, .T. ) ;
#177 = CIRCLE ( 'NONE', #38, 1.100662432702594229 ) ;
#178 = DIRECTION ( 'NONE',  ( -3.491481338843133355E-15, 1.224646799147353207E-16, -1.000000000000000000 ) ) ;
#179 = EDGE_LOOP ( 'NONE', ( #188 ) ) ;
#180 = APPLICATION_CONTEXT ( 'configuration controlled 3d designs of mechanical parts and assemblies' ) ;
#181 = PERSON_AND_ORGANIZATION_ROLE ( 'design_owner' ) ;
#182 = CARTESIAN_POINT ( 'NONE',  ( 3.582192684931459116E-14, 1.094999999999997753, 10.25980762113533729 ) ) ;
#183 = CIRCLE ( 'NONE', #268, 1.499999999999996669 ) ;
#184 = ADVANCED_FACE ( 'NONE', ( #107, #198 ), #205, .T. ) ;
#185 = COORDINATED_UNIVERSAL_TIME_OFFSET ( 1, 0, .AHEAD. ) ;
#186 = ADVANCED_FACE ( 'NONE', ( #51, #130 ), #118, .T. ) ;
#187 = CARTESIAN_POINT ( 'NONE',  ( 6.982962677686266711E-14, -2.602085213965210642E-15, 20.00000000000000000 ) ) ;
#188 = ORIENTED_EDGE ( 'NONE', *, *, #112, .F. ) ;
#189 = EDGE_LOOP ( 'NONE', ( #127 ) ) ;
#190 = EDGE_LOOP ( 'NONE', ( #143 ) ) ;
#191 = AXIS2_PLACEMENT_3D ( 'NONE', #8, #292, #214 ) ;
#192 = CARTESIAN_POINT ( 'NONE',  ( 0.0000000000000000000, 0.0000000000000000000, 0.0000000000000000000 ) ) ;
#193 = DIRECTION ( 'NONE',  ( 0.0000000000000000000, 1.000000000000000000, 0.0000000000000000000 ) ) ;
#194 = ADVANCED_FACE ( 'NONE', ( #57 ), #84, .F. ) ;
#195 = DIRECTION ( 'NONE',  ( 3.491481338843133355E-15, -1.224646799147353207E-16, 1.000000000000000000 ) ) ;
#196 = TOROIDAL_SURFACE ( 'NONE', #285, 3.095000000000000639, 2.000000000000000444 ) ;
#197 = DIRECTION ( 'NONE',  ( -3.491481338843133355E-15, 1.224646799147353207E-16, -1.000000000000000000 ) ) ;
#198 = FACE_BOUND ( 'NONE', #77, .T. ) ;
#199 = DIRECTION ( 'NONE',  ( -4.275831445896958607E-31, -1.000000000000000000, -1.224646799147353207E-16 ) ) ;
#200 = APPROVAL_DATE_TIME ( #135, #102 ) ;
#201 = CALENDAR_DATE ( 2021, 1, 12 ) ;
#202 = VERTEX_POINT ( 'NONE', #91 ) ;
#203 = EDGE_CURVE ( 'NONE', #229, #229, #230, .T. ) ;
#204 = CARTESIAN_POINT ( 'NONE',  ( 7.846003257839388371E-14, 1.499999999999994005, 22.47184646399708896 ) ) ;
#205 = CONICAL_SURFACE ( 'NONE', #139, 1.094999999999998863, 0.5235987755982934866 ) ;
#206 = EDGE_CURVE ( 'NONE', #157, #157, #218, .T. ) ;
#207 = APPROVAL_ROLE ( '' ) ;
#208 = EDGE_LOOP ( 'NONE', ( #26 ) ) ;
#209 = ORIENTED_EDGE ( 'NONE', *, *, #226, .F. ) ;
#210 = CC_DESIGN_PERSON_AND_ORGANIZATION_ASSIGNMENT ( #163, #254, ( #40 ) ) ;
#211 = FACE_OUTER_BOUND ( 'NONE', #263, .T. ) ;
#212 = CYLINDRICAL_SURFACE ( 'NONE', #23, 1.094999999999999529 ) ;
#213 = ORGANIZATION ( 'UNSPECIFIED', 'UNSPECIFIED', '' ) ;
#214 = DIRECTION ( 'NONE',  ( 0.0000000000000000000, -1.000000000000000000, 0.0000000000000000000 ) ) ;
#215 = APPROVAL ( #69, 'UNSPECIFIED' ) ;
#216 = DIRECTION ( 'NONE',  ( 0.0000000000000000000, 1.000000000000000000, 0.0000000000000000000 ) ) ;
#217 = FACE_OUTER_BOUND ( 'NONE', #232, .T. ) ;
#218 = CIRCLE ( 'NONE', #234, 1.200000000000001732 ) ;
#219 = DIRECTION ( 'NONE',  ( 0.0000000000000000000, 1.000000000000000000, 0.0000000000000000000 ) ) ;
#220 = DIRECTION ( 'NONE',  ( 4.275831445896958607E-31, 1.000000000000000000, 1.224646799147353454E-16 ) ) ;
#221 = CALENDAR_DATE ( 2021, 1, 12 ) ;
#222 =( LENGTH_UNIT ( ) NAMED_UNIT ( * ) SI_UNIT ( .MILLI., .METRE. ) );
#223 = PERSON_AND_ORGANIZATION_ROLE ( 'creator' ) ;
#224 = CIRCLE ( 'NONE', #58, 1.500000000000001554 ) ;
#225 = DIRECTION ( 'NONE',  ( 3.491481338843133355E-15, -1.224646799147353207E-16, 1.000000000000000000 ) ) ;
#226 = EDGE_CURVE ( 'NONE', #228, #228, #177, .T. ) ;
#227 = PERSON_AND_ORGANIZATION ( #253, #213 ) ;
#228 = VERTEX_POINT ( 'NONE', #62 ) ;
#229 = VERTEX_POINT ( 'NONE', #89 ) ;
#230 = CIRCLE ( 'NONE', #64, 1.245000000000000107 ) ;
#231 = PERSON_AND_ORGANIZATION ( #253, #213 ) ;
#232 = EDGE_LOOP ( 'NONE', ( #24 ) ) ;
#233 = EDGE_LOOP ( 'NONE', ( #22 ) ) ;
#234 = AXIS2_PLACEMENT_3D ( 'NONE', #175, #172, #271 ) ;
#235 = DIRECTION ( 'NONE',  ( -3.491481338843133355E-15, 1.224646799147353207E-16, -1.000000000000000000 ) ) ;
#236 = EDGE_LOOP ( 'NONE', ( #46 ) ) ;
#237 = DIRECTION ( 'NONE',  ( -3.491481338843133355E-15, 1.224646799147353207E-16, -1.000000000000000000 ) ) ;
#238 = EDGE_CURVE ( 'NONE', #133, #133, #106, .T. ) ;
#239 = AXIS2_PLACEMENT_3D ( 'NONE', #55, #197, #32 ) ;
#240 = LOCAL_TIME ( 15, 3, 38.00000000000000000, #249 ) ;
#241 = FACE_BOUND ( 'NONE', #169, .T. ) ;
#242 = FACE_OUTER_BOUND ( 'NONE', #120, .T. ) ;
#243 = DIRECTION ( 'NONE',  ( -3.491481338843133355E-15, 1.224646799147353207E-16, -1.000000000000000000 ) ) ;
#244 = CARTESIAN_POINT ( 'NONE',  ( 1.735266225405037467E-13, -6.086494591762345225E-15, 49.70000000000000284 ) ) ;
#245 = DIRECTION ( 'NONE',  ( 0.0000000000000000000, 1.000000000000000000, 0.0000000000000000000 ) ) ;
#246 = DATE_TIME_ROLE ( 'classification_date' ) ;
#247 = PRODUCT ( '200708', '200708', '', ( #162 ) ) ;
#248 = EDGE_CURVE ( 'NONE', #202, #202, #100, .T. ) ;
#249 = COORDINATED_UNIVERSAL_TIME_OFFSET ( 1, 0, .AHEAD. ) ;
#250 = AXIS2_PLACEMENT_3D ( 'NONE', #147, #71, #284 ) ;
#251 = CARTESIAN_POINT ( 'NONE',  ( 8.728703347107835360E-16, 1.244999999999998774, 0.2500000000000000555 ) ) ;
#252 = ORIENTED_EDGE ( 'NONE', *, *, #165, .F. ) ;
#253 = PERSON ( 'UNSPECIFIED', 'UNSPECIFIED', 'UNSPECIFIED', ('UNSPECIFIED'), ('UNSPECIFIED'), ('UNSPECIFIED') ) ;
#254 = PERSON_AND_ORGANIZATION_ROLE ( 'creator' ) ;
#255 = PRODUCT_DEFINITION_SHAPE ( 'NONE', 'NONE',  #40 ) ;
#256 = VERTEX_POINT ( 'NONE', #204 ) ;
#257 = AXIS2_PLACEMENT_3D ( 'NONE', #132, #293, #199 ) ;
#258 = SECURITY_CLASSIFICATION ( '', '', #113 ) ;
#259 = PLANE ( 'NONE',  #250 ) ;
#260 = EDGE_LOOP ( 'NONE', ( #50 ) ) ;
#261 = ADVANCED_FACE ( 'NONE', ( #241, #29 ), #164, .T. ) ;
#262 = DESIGN_CONTEXT ( 'detailed design', #180, 'design' ) ;
#263 = EDGE_LOOP ( 'NONE', ( #98 ) ) ;
#264 = FACE_OUTER_BOUND ( 'NONE', #145, .T. ) ;
#265 = CC_DESIGN_PERSON_AND_ORGANIZATION_ASSIGNMENT ( #41, #181, ( #247 ) ) ;
#266 = CARTESIAN_POINT ( 'NONE',  ( 8.728703347107829444E-16, -3.061616997868381785E-17, 0.2499999999999998890 ) ) ;
#267 = DIRECTION ( 'NONE',  ( -3.491481338843133355E-15, 1.224646799147353207E-16, -1.000000000000000000 ) ) ;
#268 = AXIS2_PLACEMENT_3D ( 'NONE', #35, #243, #153 ) ;
#269 = FACE_OUTER_BOUND ( 'NONE', #146, .T. ) ;
#270 = FACE_BOUND ( 'NONE', #189, .T. ) ;
#271 = DIRECTION ( 'NONE',  ( 0.0000000000000000000, 1.000000000000000000, 0.0000000000000000000 ) ) ;
#272 = CLOSED_SHELL ( 'NONE', ( #21, #261, #13, #281 ) ) ;
#273 = DIRECTION ( 'NONE',  ( -3.491481338843133355E-15, 1.224646799147353207E-16, -1.000000000000000000 ) ) ;
#274 = CARTESIAN_POINT ( 'NONE',  ( 3.491481338843133355E-14, 9.336004647070045545E-33, 10.00000000000000000 ) ) ;
#275 = APPROVAL ( #20, 'UNSPECIFIED' ) ;
#276 = CARTESIAN_POINT ( 'NONE',  ( 6.982962677686266711E-14, 1.094999999999997975, 20.00000000000000000 ) ) ;
#277 = DATE_AND_TIME ( #110, #131 ) ;
#278 = CIRCLE ( 'NONE', #52, 1.244999999999998774 ) ;
#279 = CC_DESIGN_APPROVAL ( #102, ( #258 ) ) ;
#280 = DIRECTION ( 'NONE',  ( 4.275831445896958607E-31, 1.000000000000000000, 1.224646799147353207E-16 ) ) ;
#281 = ADVANCED_FACE ( 'NONE', ( #269 ), #158, .T. ) ;
#282 = EDGE_LOOP ( 'NONE', ( #94 ) ) ;
#283 = FACE_OUTER_BOUND ( 'NONE', #167, .T. ) ;
#284 = DIRECTION ( 'NONE',  ( -4.275831445896958607E-31, -1.000000000000000000, -1.224646799147353207E-16 ) ) ;
#285 = AXIS2_PLACEMENT_3D ( 'NONE', #187, #235, #280 ) ;
#286 = DIRECTION ( 'NONE',  ( -3.491481338843133355E-15, 1.224646799147353207E-16, -1.000000000000000000 ) ) ;
#287 = PLANE ( 'NONE',  #111 ) ;
#288 = DIRECTION ( 'NONE',  ( -4.640795046716235910E-31, -1.000000000000000000, -1.306267677693380226E-16 ) ) ;
#289 = CIRCLE ( 'NONE', #154, 1.095000000000000195 ) ;
#290 = DIRECTION ( 'NONE',  ( 4.275831445896958607E-31, 1.000000000000000000, 1.224646799147353454E-16 ) ) ;
#291 = CC_DESIGN_PERSON_AND_ORGANIZATION_ASSIGNMENT ( #227, #223, ( #294 ) ) ;
#292 = DIRECTION ( 'NONE',  ( 3.491481338843133355E-15, -1.224646799147353207E-16, 1.000000000000000000 ) ) ;
#293 = DIRECTION ( 'NONE',  ( 3.491481338843133355E-15, -1.224646799147353207E-16, 1.000000000000000000 ) ) ;
#294 = PRODUCT_DEFINITION_FORMATION_WITH_SPECIFIED_SOURCE ( 'ANY', '', #247, .NOT_KNOWN. ) ;
#295 = CALENDAR_DATE ( 2021, 1, 12 ) ;
#296 = DATE_AND_TIME ( #201, #125 ) ;
#297 = COORDINATED_UNIVERSAL_TIME_OFFSET ( 1, 0, .AHEAD. ) ;
#298 = DIRECTION ( 'NONE',  ( 1.000000000000000000, 0.0000000000000000000, 0.0000000000000000000 ) ) ;
#299 = PERSON_AND_ORGANIZATION ( #253, #213 ) ;
#300 = CARTESIAN_POINT ( 'NONE',  ( 0.0000000000000000000, 0.0000000000000000000, 0.0000000000000000000 ) ) ;
#301 = DATE_AND_TIME ( #221, #240 ) ;
#302 = CARTESIAN_POINT ( 'NONE',  ( 1.745740669421566678E-13, 1.199999999999995515, 50.00000000000000000 ) ) ;
#303 = COORDINATED_UNIVERSAL_TIME_OFFSET ( 1, 0, .AHEAD. ) ;
ENDSEC;
END-ISO-10303-21;
