ISO-10303-21;
HEADER;
FILE_DESCRIPTION (( 'STEP AP203' ),
    '1' );
FILE_NAME ('200707.step',
    '2021-12-01T14:03:37',
    ( '' ),
    ( '' ),
    'SwSTEP 2.0',
    'SolidWorks 2019',
    '' );
FILE_SCHEMA (( 'CONFIG_CONTROL_DESIGN' ));
ENDSEC;

DATA;
#1 = EDGE_LOOP ( 'NONE', ( #141 ) ) ;
#2 = ORIENTED_EDGE ( 'NONE', *, *, #284, .F. ) ;
#3 = COORDINATED_UNIVERSAL_TIME_OFFSET ( 1, 0, .AHEAD. ) ;
#4 = APPROVAL_STATUS ( 'not_yet_approved' ) ;
#5 = CC_DESIGN_PERSON_AND_ORGANIZATION_ASSIGNMENT ( #76, #187, ( #148 ) ) ;
#6 = SHAPE_DEFINITION_REPRESENTATION ( #37, #121 ) ;
#7 = PERSON ( 'UNSPECIFIED', 'UNSPECIFIED', 'UNSPECIFIED', ('UNSPECIFIED'), ('UNSPECIFIED'), ('UNSPECIFIED') ) ;
#8 = ORIENTED_EDGE ( 'NONE', *, *, #264, .F. ) ;
#9 = AXIS2_PLACEMENT_3D ( 'NONE', #153, #17, #247 ) ;
#10 = FACE_BOUND ( 'NONE', #188, .T. ) ;
#11 = LOCAL_TIME ( 15, 3, 37.00000000000000000, #251 ) ;
#12 = DIRECTION ( 'NONE',  ( 3.491481338843133355E-15, -1.224646799147353207E-16, 1.000000000000000000 ) ) ;
#13 = ADVANCED_FACE ( 'NONE', ( #258 ), #102, .F. ) ;
#14 = CARTESIAN_POINT ( 'NONE',  ( 3.491481338843133355E-14, 9.298510652503500200E-33, 10.00000000000000000 ) ) ;
#15 = CARTESIAN_POINT ( 'NONE',  ( 0.0000000000000000000, 0.0000000000000000000, 0.0000000000000000000 ) ) ;
#16 = PRODUCT_DEFINITION_FORMATION_WITH_SPECIFIED_SOURCE ( 'ANY', '', #218, .NOT_KNOWN. ) ;
#17 = DIRECTION ( 'NONE',  ( -3.491481338843133355E-15, 1.224646799147353207E-16, -1.000000000000000000 ) ) ;
#18 = CALENDAR_DATE ( 2021, 1, 12 ) ;
#19 = CONICAL_SURFACE ( 'NONE', #198, 1.200000000000001732, 0.7853981633974453924 ) ;
#20 = DIRECTION ( 'NONE',  ( 0.0000000000000000000, 1.000000000000000000, 0.0000000000000000000 ) ) ;
#21 = CARTESIAN_POINT ( 'NONE',  ( 3.491481338843133355E-14, 1.239999999999998881, 10.00000000000000000 ) ) ;
#22 = DIRECTION ( 'NONE',  ( -3.491481338843133355E-15, 1.224646799147353207E-16, -1.000000000000000000 ) ) ;
#23 = DIRECTION ( 'NONE',  ( 1.000000000000000000, 0.0000000000000000000, 0.0000000000000000000 ) ) ;
#24 = DIRECTION ( 'NONE',  ( -3.491481338843133355E-15, 1.224646799147353207E-16, -1.000000000000000000 ) ) ;
#25 = AXIS2_PLACEMENT_3D ( 'NONE', #46, #24, #138 ) ;
#26 = DESIGN_CONTEXT ( 'detailed design', #189, 'design' ) ;
#27 = EDGE_LOOP ( 'NONE', ( #2 ) ) ;
#28 = ORIENTED_EDGE ( 'NONE', *, *, #204, .T. ) ;
#29 = SECURITY_CLASSIFICATION_LEVEL ( 'unclassified' ) ;
#30 = EDGE_LOOP ( 'NONE', ( #69 ) ) ;
#31 = PRODUCT_DEFINITION ( 'UNKNOWN', '', #16, #26 ) ;
#32 = AXIS2_PLACEMENT_3D ( 'NONE', #14, #36, #200 ) ;
#33 = AXIS2_PLACEMENT_3D ( 'NONE', #290, #263, #59 ) ;
#34 = CARTESIAN_POINT ( 'NONE',  ( 8.728703347107827472E-16, -3.061616997868381169E-17, 0.2499999999999998335 ) ) ;
#35 = CLOSED_SHELL ( 'NONE', ( #178, #55, #194, #253, #159, #154, #130, #13 ) ) ;
#36 = DIRECTION ( 'NONE',  ( 3.491481338843133355E-15, -1.224646799147353207E-16, 1.000000000000000000 ) ) ;
#37 = PRODUCT_DEFINITION_SHAPE ( 'NONE', 'NONE',  #31 ) ;
#38 = APPROVAL ( #4, 'UNSPECIFIED' ) ;
#39 = FACE_OUTER_BOUND ( 'NONE', #30, .T. ) ;
#40 = CARTESIAN_POINT ( 'NONE',  ( 0.0000000000000000000, 0.0000000000000000000, 0.0000000000000000000 ) ) ;
#41 = FACE_OUTER_BOUND ( 'NONE', #163, .T. ) ;
#42 = AXIS2_PLACEMENT_3D ( 'NONE', #206, #65, #180 ) ;
#43 = APPROVAL_STATUS ( 'not_yet_approved' ) ;
#44 = VERTEX_POINT ( 'NONE', #231 ) ;
#45 = VERTEX_POINT ( 'NONE', #235 ) ;
#46 = CARTESIAN_POINT ( 'NONE',  ( 7.855903845159646804E-14, -2.755480142870208807E-15, 22.50020287309517641 ) ) ;
#47 = APPROVAL ( #43, 'UNSPECIFIED' ) ;
#48 = LOCAL_TIME ( 15, 3, 37.00000000000000000, #3 ) ;
#49 = CARTESIAN_POINT ( 'NONE',  ( 6.982962677686266711E-14, -2.449293598294706513E-15, 20.00000000000000000 ) ) ;
#50 = EDGE_LOOP ( 'NONE', ( #195 ) ) ;
#51 = MANIFOLD_SOLID_BREP ( 'Corps-Déplacer/Copier1[2]', #265 ) ;
#52 = APPROVAL_STATUS ( 'not_yet_approved' ) ;
#53 = ORIENTED_EDGE ( 'NONE', *, *, #264, .T. ) ;
#54 = DIRECTION ( 'NONE',  ( -3.491481338843133355E-15, 1.224646799147353207E-16, -1.000000000000000000 ) ) ;
#55 = ADVANCED_FACE ( 'NONE', ( #257, #238 ), #281, .T. ) ;
#56 = DATE_AND_TIME ( #134, #11 ) ;
#57 = CIRCLE ( 'NONE', #42, 1.500000000000001554 ) ;
#58 = FACE_OUTER_BOUND ( 'NONE', #50, .T. ) ;
#59 = DIRECTION ( 'NONE',  ( 0.0000000000000000000, 1.000000000000000000, 0.0000000000000000000 ) ) ;
#60 = CIRCLE ( 'NONE', #33, 1.240000000000000213 ) ;
#61 = FACE_BOUND ( 'NONE', #90, .T. ) ;
#62 = CC_DESIGN_PERSON_AND_ORGANIZATION_ASSIGNMENT ( #193, #147, ( #16 ) ) ;
#63 = DIRECTION ( 'NONE',  ( 3.491481338843133355E-15, -1.224646799147353207E-16, 1.000000000000000000 ) ) ;
#64 = DIRECTION ( 'NONE',  ( 0.0000000000000000000, 1.000000000000000000, 0.0000000000000000000 ) ) ;
#65 = DIRECTION ( 'NONE',  ( -3.491481338843133355E-15, 1.224646799147353207E-16, -1.000000000000000000 ) ) ;
#66 = EDGE_LOOP ( 'NONE', ( #162 ) ) ;
#67 = DIRECTION ( 'NONE',  ( 0.0000000000000000000, 0.0000000000000000000, 1.000000000000000000 ) ) ;
#68 = EDGE_LOOP ( 'NONE', ( #92 ) ) ;
#69 = ORIENTED_EDGE ( 'NONE', *, *, #227, .T. ) ;
#70 = CIRCLE ( 'NONE', #242, 1.200000000000001732 ) ;
#71 = EDGE_CURVE ( 'NONE', #176, #176, #142, .T. ) ;
#72 = EDGE_LOOP ( 'NONE', ( #143 ) ) ;
#73 = CALENDAR_DATE ( 2021, 1, 12 ) ;
#74 = CC_DESIGN_APPROVAL ( #38, ( #16 ) ) ;
#75 = DATE_AND_TIME ( #73, #243 ) ;
#76 = PERSON_AND_ORGANIZATION ( #7, #94 ) ;
#77 = ORIENTED_EDGE ( 'NONE', *, *, #297, .T. ) ;
#78 = APPROVAL_PERSON_ORGANIZATION ( #97, #38, #166 ) ;
#79 = DIRECTION ( 'NONE',  ( 4.275831445896958607E-31, 1.000000000000000000, 1.224646799147353207E-16 ) ) ;
#80 = DIRECTION ( 'NONE',  ( -4.275831445896958607E-31, -1.000000000000000000, -1.224646799147353207E-16 ) ) ;
#81 = EDGE_CURVE ( 'NONE', #273, #273, #287, .T. ) ;
#82 = CONICAL_SURFACE ( 'NONE', #125, 1.239999999999998881, 0.5235987755982927094 ) ;
#83 = CARTESIAN_POINT ( 'NONE',  ( 3.582192684931459116E-14, -1.256464056309101033E-15, 10.25980762113533729 ) ) ;
#84 = CARTESIAN_POINT ( 'NONE',  ( 8.728703347107827472E-16, -3.061616997868381169E-17, 0.2499999999999998335 ) ) ;
#85 = MECHANICAL_CONTEXT ( 'NONE', #135, 'mechanical' ) ;
#86 = AXIS2_PLACEMENT_3D ( 'NONE', #222, #106, #79 ) ;
#87 = APPROVAL_DATE_TIME ( #296, #47 ) ;
#88 = LOCAL_TIME ( 15, 3, 37.00000000000000000, #228 ) ;
#89 = VERTEX_POINT ( 'NONE', #160 ) ;
#90 = EDGE_LOOP ( 'NONE', ( #210 ) ) ;
#91 = EDGE_LOOP ( 'NONE', ( #139 ) ) ;
#92 = ORIENTED_EDGE ( 'NONE', *, *, #81, .F. ) ;
#93 = DATE_AND_TIME ( #212, #105 ) ;
#94 = ORGANIZATION ( 'UNSPECIFIED', 'UNSPECIFIED', '' ) ;
#95 = ORIENTED_EDGE ( 'NONE', *, *, #101, .F. ) ;
#96 = CC_DESIGN_DATE_AND_TIME_ASSIGNMENT ( #240, #213, ( #148 ) ) ;
#97 = PERSON_AND_ORGANIZATION ( #7, #94 ) ;
#98 = CARTESIAN_POINT ( 'NONE',  ( 1.745740669421566678E-13, 8.998558695971067645E-33, 50.00000000000000000 ) ) ;
#99 = APPROVAL_DATE_TIME ( #75, #38 ) ;
#100 = AXIS2_PLACEMENT_3D ( 'NONE', #199, #292, #149 ) ;
#101 = EDGE_CURVE ( 'NONE', #229, #229, #70, .T. ) ;
#102 = PLANE ( 'NONE',  #223 ) ;
#103 = AXIS2_PLACEMENT_3D ( 'NONE', #207, #303, #185 ) ;
#104 = FACE_OUTER_BOUND ( 'NONE', #241, .T. ) ;
#105 = LOCAL_TIME ( 15, 3, 37.00000000000000000, #285 ) ;
#106 = DIRECTION ( 'NONE',  ( -3.491481338843133355E-15, 1.224646799147353207E-16, -1.000000000000000000 ) ) ;
#107 = TOROIDAL_SURFACE ( 'NONE', #100, 3.090000000000000746, 2.000000000000000444 ) ;
#108 = DIRECTION ( 'NONE',  ( 4.275831445896958607E-31, 1.000000000000000000, 1.224646799147353207E-16 ) ) ;
#109 = FACE_OUTER_BOUND ( 'NONE', #27, .T. ) ;
#110 = APPLICATION_PROTOCOL_DEFINITION ( 'international standard', 'config_control_design', 1994, #135 ) ;
#111 = AXIS2_PLACEMENT_3D ( 'NONE', #49, #276, #282 ) ;
#112 = CARTESIAN_POINT ( 'NONE',  ( 1.745740669421566678E-13, 1.199999999999995515, 50.00000000000000000 ) ) ;
#113 = CIRCLE ( 'NONE', #144, 1.240000000000000213 ) ;
#114 = CC_DESIGN_DATE_AND_TIME_ASSIGNMENT ( #56, #283, ( #31 ) ) ;
#115 = DIRECTION ( 'NONE',  ( 0.0000000000000000000, 1.000000000000000000, 0.0000000000000000000 ) ) ;
#116 = EDGE_LOOP ( 'NONE', ( #77 ) ) ;
#117 = PERSON_AND_ORGANIZATION_ROLE ( 'design_owner' ) ;
#118 = ORIENTED_EDGE ( 'NONE', *, *, #183, .T. ) ;
#119 = CARTESIAN_POINT ( 'NONE',  ( 3.582192684931459116E-14, -1.256464056309101033E-15, 10.25980762113533729 ) ) ;
#120 = ORIENTED_EDGE ( 'NONE', *, *, #101, .T. ) ;
#121 = ADVANCED_BREP_SHAPE_REPRESENTATION ( '200707', ( #150, #51, #220 ), #226 ) ;
#122 = APPROVAL_ROLE ( '' ) ;
#123 = COORDINATED_UNIVERSAL_TIME_OFFSET ( 1, 0, .AHEAD. ) ;
#124 = DIRECTION ( 'NONE',  ( 0.0000000000000000000, 1.000000000000000000, 0.0000000000000000000 ) ) ;
#125 = AXIS2_PLACEMENT_3D ( 'NONE', #34, #63, #248 ) ;
#126 = ADVANCED_FACE ( 'NONE', ( #205 ), #182, .F. ) ;
#127 = DIRECTION ( 'NONE',  ( 0.0000000000000000000, 1.000000000000000000, 0.0000000000000000000 ) ) ;
#128 = APPROVAL_PERSON_ORGANIZATION ( #168, #268, #122 ) ;
#129 = CYLINDRICAL_SURFACE ( 'NONE', #9, 1.239999999999999547 ) ;
#130 = ADVANCED_FACE ( 'NONE', ( #109, #10 ), #19, .T. ) ;
#131 = FACE_BOUND ( 'NONE', #1, .T. ) ;
#132 = PLANE ( 'NONE',  #32 ) ;
#133 = APPROVAL_ROLE ( '' ) ;
#134 = CALENDAR_DATE ( 2021, 1, 12 ) ;
#135 = APPLICATION_CONTEXT ( 'configuration controlled 3d designs of mechanical parts and assemblies' ) ;
#136 = ADVANCED_FACE ( 'NONE', ( #61, #39 ), #82, .T. ) ;
#137 = VERTEX_POINT ( 'NONE', #298 ) ;
#138 = DIRECTION ( 'NONE',  ( 0.0000000000000000000, 1.000000000000000000, 0.0000000000000000000 ) ) ;
#139 = ORIENTED_EDGE ( 'NONE', *, *, #246, .T. ) ;
#140 = PERSON_AND_ORGANIZATION ( #7, #94 ) ;
#141 = ORIENTED_EDGE ( 'NONE', *, *, #246, .F. ) ;
#142 = CIRCLE ( 'NONE', #111, 1.090000000000000524 ) ;
#143 = ORIENTED_EDGE ( 'NONE', *, *, #284, .T. ) ;
#144 = AXIS2_PLACEMENT_3D ( 'NONE', #184, #272, #20 ) ;
#145 = EDGE_LOOP ( 'NONE', ( #237 ) ) ;
#146 = CIRCLE ( 'NONE', #236, 1.120384493975580487 ) ;
#147 = PERSON_AND_ORGANIZATION_ROLE ( 'design_supplier' ) ;
#148 = SECURITY_CLASSIFICATION ( '', '', #29 ) ;
#149 = DIRECTION ( 'NONE',  ( 4.275831445896958607E-31, 1.000000000000000000, 1.224646799147353207E-16 ) ) ;
#150 = MANIFOLD_SOLID_BREP ( 'Corps-Déplacer/Copier1[1]', #35 ) ;
#151 = CYLINDRICAL_SURFACE ( 'NONE', #295, 1.089999999999999858 ) ;
#152 = AXIS2_PLACEMENT_3D ( 'NONE', #119, #301, #191 ) ;
#153 = CARTESIAN_POINT ( 'NONE',  ( 0.0000000000000000000, 0.0000000000000000000, 0.0000000000000000000 ) ) ;
#154 = ADVANCED_FACE ( 'NONE', ( #269, #155 ), #293, .T. ) ;
#155 = FACE_OUTER_BOUND ( 'NONE', #72, .T. ) ;
#156 = DIRECTION ( 'NONE',  ( 4.275831445896958607E-31, 1.000000000000000000, 1.224646799147353454E-16 ) ) ;
#157 = APPLICATION_PROTOCOL_DEFINITION ( 'international standard', 'config_control_design', 1994, #189 ) ;
#158 = PERSON_AND_ORGANIZATION_ROLE ( 'creator' ) ;
#159 = ADVANCED_FACE ( 'NONE', ( #131, #41 ), #173, .T. ) ;
#160 = CARTESIAN_POINT ( 'NONE',  ( 8.728703347107833388E-16, 1.239999999999998881, 0.2500000000000000000 ) ) ;
#161 = ORIENTED_EDGE ( 'NONE', *, *, #81, .T. ) ;
#162 = ORIENTED_EDGE ( 'NONE', *, *, #204, .F. ) ;
#163 = EDGE_LOOP ( 'NONE', ( #161 ) ) ;
#164 = CALENDAR_DATE ( 2021, 1, 12 ) ;
#165 = ORIENTED_EDGE ( 'NONE', *, *, #227, .F. ) ;
#166 = APPROVAL_ROLE ( '' ) ;
#167 = ADVANCED_FACE ( 'NONE', ( #267, #245 ), #129, .T. ) ;
#168 = PERSON_AND_ORGANIZATION ( #7, #94 ) ;
#169 = FACE_OUTER_BOUND ( 'NONE', #278, .T. ) ;
#170 = CIRCLE ( 'NONE', #277, 1.089999999999999192 ) ;
#171 = FACE_OUTER_BOUND ( 'NONE', #145, .T. ) ;
#172 = FACE_OUTER_BOUND ( 'NONE', #254, .T. ) ;
#173 = CONICAL_SURFACE ( 'NONE', #192, 1.499999999999996669, 0.1745329251994265085 ) ;
#174 = DIRECTION ( 'NONE',  ( -3.491481338843133355E-15, 1.224646799147353207E-16, -1.000000000000000000 ) ) ;
#175 = CARTESIAN_POINT ( 'NONE',  ( 7.104220552055901835E-14, -2.491825135286219831E-15, 20.34729635533384595 ) ) ;
#176 = VERTEX_POINT ( 'NONE', #255 ) ;
#177 = CIRCLE ( 'NONE', #86, 1.095662432702594558 ) ;
#178 = ADVANCED_FACE ( 'NONE', ( #104 ), #201, .F. ) ;
#179 = PERSON_AND_ORGANIZATION ( #7, #94 ) ;
#180 = DIRECTION ( 'NONE',  ( 0.0000000000000000000, 1.000000000000000000, 0.0000000000000000000 ) ) ;
#181 = VERTEX_POINT ( 'NONE', #202 ) ;
#182 = PLANE ( 'NONE',  #103 ) ;
#183 = EDGE_CURVE ( 'NONE', #137, #137, #177, .T. ) ;
#184 = CARTESIAN_POINT ( 'NONE',  ( 3.491481338843133355E-14, -1.224646799147353256E-15, 10.00000000000000000 ) ) ;
#185 = DIRECTION ( 'NONE',  ( -4.275831445896958607E-31, -1.000000000000000000, -1.224646799147353207E-16 ) ) ;
#186 = CC_DESIGN_SECURITY_CLASSIFICATION ( #148, ( #16 ) ) ;
#187 = PERSON_AND_ORGANIZATION_ROLE ( 'classification_officer' ) ;
#188 = EDGE_LOOP ( 'NONE', ( #120 ) ) ;
#189 = APPLICATION_CONTEXT ( 'configuration controlled 3d designs of mechanical parts and assemblies' ) ;
#190 = UNCERTAINTY_MEASURE_WITH_UNIT (LENGTH_MEASURE( 1.000000000000000082E-05 ), #302, 'distance_accuracy_value', 'NONE');
#191 = DIRECTION ( 'NONE',  ( 0.0000000000000000000, 1.000000000000000000, 0.0000000000000000000 ) ) ;
#192 = AXIS2_PLACEMENT_3D ( 'NONE', #289, #12, #224 ) ;
#193 = PERSON_AND_ORGANIZATION ( #7, #94 ) ;
#194 = ADVANCED_FACE ( 'NONE', ( #169, #171 ), #151, .T. ) ;
#195 = ORIENTED_EDGE ( 'NONE', *, *, #71, .F. ) ;
#196 = CARTESIAN_POINT ( 'NONE',  ( 3.491481338843133355E-14, 9.298510652503500200E-33, 10.00000000000000000 ) ) ;
#197 = DIRECTION ( 'NONE',  ( -3.491481338843133355E-15, 1.224646799147353207E-16, -1.000000000000000000 ) ) ;
#198 = AXIS2_PLACEMENT_3D ( 'NONE', #249, #244, #124 ) ;
#199 = CARTESIAN_POINT ( 'NONE',  ( 6.982962677686266711E-14, -2.602085213965210642E-15, 20.00000000000000000 ) ) ;
#200 = DIRECTION ( 'NONE',  ( -4.275831445896958607E-31, -1.000000000000000000, -1.224646799147353207E-16 ) ) ;
#201 = PLANE ( 'NONE',  #270 ) ;
#202 = CARTESIAN_POINT ( 'NONE',  ( 3.491481338843133355E-14, 1.239999999999998881, 10.00000000000000000 ) ) ;
#203 = VERTEX_POINT ( 'NONE', #252 ) ;
#204 = EDGE_CURVE ( 'NONE', #181, #181, #60, .T. ) ;
#205 = FACE_OUTER_BOUND ( 'NONE', #209, .T. ) ;
#206 = CARTESIAN_POINT ( 'NONE',  ( 1.735266225405037467E-13, -6.086494591762345225E-15, 49.70000000000000284 ) ) ;
#207 = CARTESIAN_POINT ( 'NONE',  ( -3.288801855110437505E-31, 1.153556406011147574E-32, -9.419502886989934120E-17 ) ) ;
#208 = CARTESIAN_POINT ( 'NONE',  ( 7.855903845159646804E-14, 1.499999999999994005, 22.50020287309517641 ) ) ;
#209 = EDGE_LOOP ( 'NONE', ( #118 ) ) ;
#210 = ORIENTED_EDGE ( 'NONE', *, *, #183, .F. ) ;
#211 = CC_DESIGN_PERSON_AND_ORGANIZATION_ASSIGNMENT ( #140, #117, ( #218 ) ) ;
#212 = CALENDAR_DATE ( 2021, 1, 12 ) ;
#213 = DATE_TIME_ROLE ( 'classification_date' ) ;
#214 = PERSON_AND_ORGANIZATION ( #7, #94 ) ;
#215 = ORIENTED_EDGE ( 'NONE', *, *, #297, .F. ) ;
#216 = AXIS2_PLACEMENT_3D ( 'NONE', #84, #266, #225 ) ;
#217 = DIRECTION ( 'NONE',  ( -3.491481338843133355E-15, 1.224646799147353207E-16, -1.000000000000000000 ) ) ;
#218 = PRODUCT ( '200707', '200707', '', ( #85 ) ) ;
#219 = FACE_OUTER_BOUND ( 'NONE', #91, .T. ) ;
#220 = AXIS2_PLACEMENT_3D ( 'NONE', #233, #67, #23 ) ;
#221 = ADVANCED_FACE ( 'NONE', ( #172 ), #132, .T. ) ;
#222 = CARTESIAN_POINT ( 'NONE',  ( -6.577603710220875009E-31, 2.307112812022295147E-32, -1.883900577397986824E-16 ) ) ;
#223 = AXIS2_PLACEMENT_3D ( 'NONE', #98, #54, #288 ) ;
#224 = DIRECTION ( 'NONE',  ( 0.0000000000000000000, -1.000000000000000000, 0.0000000000000000000 ) ) ;
#225 = DIRECTION ( 'NONE',  ( 4.659507929969123633E-31, 1.000000000000000000, 1.311534886071176023E-16 ) ) ;
#226 =( GEOMETRIC_REPRESENTATION_CONTEXT ( 3 ) GLOBAL_UNCERTAINTY_ASSIGNED_CONTEXT ( ( #190 ) ) GLOBAL_UNIT_ASSIGNED_CONTEXT ( ( #302, #275, #271 ) ) REPRESENTATION_CONTEXT ( 'NONE', 'WORKASPACE' ) );
#227 = EDGE_CURVE ( 'NONE', #89, #89, #260, .T. ) ;
#228 = COORDINATED_UNIVERSAL_TIME_OFFSET ( 1, 0, .AHEAD. ) ;
#229 = VERTEX_POINT ( 'NONE', #112 ) ;
#230 = PRODUCT_RELATED_PRODUCT_CATEGORY ( 'detail', '', ( #218 ) ) ;
#231 = CARTESIAN_POINT ( 'NONE',  ( 1.735266225405037467E-13, 1.499999999999995559, 49.70000000000000284 ) ) ;
#232 = CARTESIAN_POINT ( 'NONE',  ( 1.745740669421566678E-13, -6.123233995736766085E-15, 50.00000000000000000 ) ) ;
#233 = CARTESIAN_POINT ( 'NONE',  ( 0.0000000000000000000, 0.0000000000000000000, 0.0000000000000000000 ) ) ;
#234 = EDGE_LOOP ( 'NONE', ( #165 ) ) ;
#235 = CARTESIAN_POINT ( 'NONE',  ( 3.582192684931459116E-14, 1.089999999999997859, 10.25980762113533729 ) ) ;
#236 = AXIS2_PLACEMENT_3D ( 'NONE', #175, #262, #127 ) ;
#237 = ORIENTED_EDGE ( 'NONE', *, *, #71, .T. ) ;
#238 = FACE_BOUND ( 'NONE', #280, .T. ) ;
#239 = APPROVAL_PERSON_ORGANIZATION ( #250, #47, #133 ) ;
#240 = DATE_AND_TIME ( #164, #48 ) ;
#241 = EDGE_LOOP ( 'NONE', ( #28 ) ) ;
#242 = AXIS2_PLACEMENT_3D ( 'NONE', #232, #22, #115 ) ;
#243 = LOCAL_TIME ( 15, 3, 37.00000000000000000, #123 ) ;
#244 = DIRECTION ( 'NONE',  ( -3.491481338843133355E-15, 1.224646799147353207E-16, -1.000000000000000000 ) ) ;
#245 = FACE_OUTER_BOUND ( 'NONE', #116, .T. ) ;
#246 = EDGE_CURVE ( 'NONE', #203, #203, #146, .T. ) ;
#247 = DIRECTION ( 'NONE',  ( 4.275831445896958607E-31, 1.000000000000000000, 1.224646799147353207E-16 ) ) ;
#248 = DIRECTION ( 'NONE',  ( -4.659507929969123633E-31, -1.000000000000000000, -1.311534886071176023E-16 ) ) ;
#249 = CARTESIAN_POINT ( 'NONE',  ( 1.745740669421566678E-13, -6.123233995736766085E-15, 50.00000000000000000 ) ) ;
#250 = PERSON_AND_ORGANIZATION ( #7, #94 ) ;
#251 = COORDINATED_UNIVERSAL_TIME_OFFSET ( 1, 0, .AHEAD. ) ;
#252 = CARTESIAN_POINT ( 'NONE',  ( 7.104220552055901835E-14, 1.120384493975578266, 20.34729635533384595 ) ) ;
#253 = ADVANCED_FACE ( 'NONE', ( #58, #219 ), #107, .F. ) ;
#254 = EDGE_LOOP ( 'NONE', ( #215 ) ) ;
#255 = CARTESIAN_POINT ( 'NONE',  ( 6.982962677686266711E-14, 1.089999999999998082, 20.00000000000000000 ) ) ;
#256 = EDGE_LOOP ( 'NONE', ( #95 ) ) ;
#257 = FACE_OUTER_BOUND ( 'NONE', #66, .T. ) ;
#258 = FACE_OUTER_BOUND ( 'NONE', #256, .T. ) ;
#259 = CC_DESIGN_APPROVAL ( #47, ( #31 ) ) ;
#260 = CIRCLE ( 'NONE', #216, 1.239999999999998881 ) ;
#261 = APPROVAL_DATE_TIME ( #93, #268 ) ;
#262 = DIRECTION ( 'NONE',  ( -3.491481338843133355E-15, 1.224646799147353207E-16, -1.000000000000000000 ) ) ;
#263 = DIRECTION ( 'NONE',  ( -3.491481338843133355E-15, 1.224646799147353207E-16, -1.000000000000000000 ) ) ;
#264 = EDGE_CURVE ( 'NONE', #45, #45, #170, .T. ) ;
#265 = CLOSED_SHELL ( 'NONE', ( #126, #136, #167, #221 ) ) ;
#266 = DIRECTION ( 'NONE',  ( -3.491481338843133355E-15, 1.224646799147353207E-16, -1.000000000000000000 ) ) ;
#267 = FACE_OUTER_BOUND ( 'NONE', #234, .T. ) ;
#268 = APPROVAL ( #52, 'UNSPECIFIED' ) ;
#269 = FACE_OUTER_BOUND ( 'NONE', #68, .T. ) ;
#270 = AXIS2_PLACEMENT_3D ( 'NONE', #196, #294, #80 ) ;
#271 =( NAMED_UNIT ( * ) SI_UNIT ( $, .STERADIAN. ) SOLID_ANGLE_UNIT ( ) );
#272 = DIRECTION ( 'NONE',  ( -3.491481338843133355E-15, 1.224646799147353207E-16, -1.000000000000000000 ) ) ;
#273 = VERTEX_POINT ( 'NONE', #208 ) ;
#274 = CC_DESIGN_PERSON_AND_ORGANIZATION_ASSIGNMENT ( #179, #158, ( #31 ) ) ;
#275 =( NAMED_UNIT ( * ) PLANE_ANGLE_UNIT ( ) SI_UNIT ( $, .RADIAN. ) );
#276 = DIRECTION ( 'NONE',  ( -3.491481338843133355E-15, 1.224646799147353207E-16, -1.000000000000000000 ) ) ;
#277 = AXIS2_PLACEMENT_3D ( 'NONE', #83, #174, #64 ) ;
#278 = EDGE_LOOP ( 'NONE', ( #8 ) ) ;
#279 = CC_DESIGN_PERSON_AND_ORGANIZATION_ASSIGNMENT ( #214, #286, ( #16 ) ) ;
#280 = EDGE_LOOP ( 'NONE', ( #53 ) ) ;
#281 = CONICAL_SURFACE ( 'NONE', #152, 1.089999999999999192, 0.5235987755982934866 ) ;
#282 = DIRECTION ( 'NONE',  ( 0.0000000000000000000, 1.000000000000000000, 0.0000000000000000000 ) ) ;
#283 = DATE_TIME_ROLE ( 'creation_date' ) ;
#284 = EDGE_CURVE ( 'NONE', #44, #44, #57, .T. ) ;
#285 = COORDINATED_UNIVERSAL_TIME_OFFSET ( 1, 0, .AHEAD. ) ;
#286 = PERSON_AND_ORGANIZATION_ROLE ( 'creator' ) ;
#287 = CIRCLE ( 'NONE', #25, 1.499999999999996669 ) ;
#288 = DIRECTION ( 'NONE',  ( 4.275831445896958607E-31, 1.000000000000000000, 1.224646799147353207E-16 ) ) ;
#289 = CARTESIAN_POINT ( 'NONE',  ( 7.855903845159646804E-14, -2.755480142870208807E-15, 22.50020287309517641 ) ) ;
#290 = CARTESIAN_POINT ( 'NONE',  ( 3.491481338843133355E-14, -1.224646799147353256E-15, 10.00000000000000000 ) ) ;
#291 = AXIS2_PLACEMENT_3D ( 'NONE', #40, #197, #156 ) ;
#292 = DIRECTION ( 'NONE',  ( -3.491481338843133355E-15, 1.224646799147353207E-16, -1.000000000000000000 ) ) ;
#293 = CYLINDRICAL_SURFACE ( 'NONE', #291, 1.499999999999999112 ) ;
#294 = DIRECTION ( 'NONE',  ( 3.491481338843133355E-15, -1.224646799147353207E-16, 1.000000000000000000 ) ) ;
#295 = AXIS2_PLACEMENT_3D ( 'NONE', #15, #217, #108 ) ;
#296 = DATE_AND_TIME ( #18, #88 ) ;
#297 = EDGE_CURVE ( 'NONE', #300, #300, #113, .T. ) ;
#298 = CARTESIAN_POINT ( 'NONE',  ( -1.892735826383161356E-31, 1.095662432702594558, -5.421010862427522170E-17 ) ) ;
#299 = CC_DESIGN_APPROVAL ( #268, ( #148 ) ) ;
#300 = VERTEX_POINT ( 'NONE', #21 ) ;
#301 = DIRECTION ( 'NONE',  ( -3.491481338843133355E-15, 1.224646799147353207E-16, -1.000000000000000000 ) ) ;
#302 =( LENGTH_UNIT ( ) NAMED_UNIT ( * ) SI_UNIT ( .MILLI., .METRE. ) );
#303 = DIRECTION ( 'NONE',  ( 3.491481338843133355E-15, -1.224646799147353207E-16, 1.000000000000000000 ) ) ;
ENDSEC;
END-ISO-10303-21;
