ISO-10303-21;
HEADER;
FILE_DESCRIPTION (( 'STEP AP203' ),
    '1' );
FILE_NAME ('200706.step',
    '2021-12-01T14:03:37',
    ( '' ),
    ( '' ),
    'SwSTEP 2.0',
    'SolidWorks 2019',
    '' );
FILE_SCHEMA (( 'CONFIG_CONTROL_DESIGN' ));
ENDSEC;

DATA;
#1 = CARTESIAN_POINT ( 'NONE',  ( 1.735266225405037467E-13, -6.086494591762345225E-15, 49.70000000000000284 ) ) ;
#2 = ADVANCED_FACE ( 'NONE', ( #10 ), #170, .F. ) ;
#3 = CIRCLE ( 'NONE', #199, 1.200000000000001732 ) ;
#4 = EDGE_LOOP ( 'NONE', ( #232 ) ) ;
#5 = DIRECTION ( 'NONE',  ( 0.0000000000000000000, -1.000000000000000000, 0.0000000000000000000 ) ) ;
#6 = TOROIDAL_SURFACE ( 'NONE', #273, 2.949999999999999734, 2.000000000000000000 ) ;
#7 = EDGE_LOOP ( 'NONE', ( #291 ) ) ;
#8 = DIRECTION ( 'NONE',  ( -3.491481338843133355E-15, 1.224646799147353207E-16, -1.000000000000000000 ) ) ;
#9 = VERTEX_POINT ( 'NONE', #266 ) ;
#10 = FACE_OUTER_BOUND ( 'NONE', #213, .T. ) ;
#11 =( NAMED_UNIT ( * ) PLANE_ANGLE_UNIT ( ) SI_UNIT ( $, .RADIAN. ) );
#12 = DIRECTION ( 'NONE',  ( 4.275831445896958607E-31, 1.000000000000000000, 1.224646799147353207E-16 ) ) ;
#13 = CARTESIAN_POINT ( 'NONE',  ( 8.728703347107829444E-16, -3.061616997868381785E-17, 0.2499999999999998890 ) ) ;
#14 = FACE_BOUND ( 'NONE', #7, .T. ) ;
#15 = CC_DESIGN_PERSON_AND_ORGANIZATION_ASSIGNMENT ( #226, #137, ( #111 ) ) ;
#16 = AXIS2_PLACEMENT_3D ( 'NONE', #13, #103, #172 ) ;
#17 = AXIS2_PLACEMENT_3D ( 'NONE', #91, #164, #260 ) ;
#18 = FACE_OUTER_BOUND ( 'NONE', #125, .T. ) ;
#19 = DIRECTION ( 'NONE',  ( 4.275831445896958607E-31, 1.000000000000000000, 1.224646799147353207E-16 ) ) ;
#20 = EDGE_CURVE ( 'NONE', #77, #77, #257, .T. ) ;
#21 = APPLICATION_CONTEXT ( 'configuration controlled 3d designs of mechanical parts and assemblies' ) ;
#22 = ORIENTED_EDGE ( 'NONE', *, *, #133, .T. ) ;
#23 = DIRECTION ( 'NONE',  ( 0.0000000000000000000, 1.000000000000000000, 0.0000000000000000000 ) ) ;
#24 = CIRCLE ( 'NONE', #185, 1.099999999999998979 ) ;
#25 = EDGE_LOOP ( 'NONE', ( #115 ) ) ;
#26 = VERTEX_POINT ( 'NONE', #53 ) ;
#27 = ORIENTED_EDGE ( 'NONE', *, *, #241, .T. ) ;
#28 = CIRCLE ( 'NONE', #109, 0.9499999999999998446 ) ;
#29 = CARTESIAN_POINT ( 'NONE',  ( 6.405924284287273902E-14, 0.9803844939755782528, 18.34729635533384240 ) ) ;
#30 = ORIENTED_EDGE ( 'NONE', *, *, #88, .T. ) ;
#31 = DIRECTION ( 'NONE',  ( 4.275831445896957731E-31, 1.000000000000000000, 1.224646799147353207E-16 ) ) ;
#32 = FACE_OUTER_BOUND ( 'NONE', #186, .T. ) ;
#33 = EDGE_CURVE ( 'NONE', #187, #187, #28, .T. ) ;
#34 = LOCAL_TIME ( 15, 3, 37.00000000000000000, #89 ) ;
#35 = DIRECTION ( 'NONE',  ( -4.275831445896958607E-31, -1.000000000000000000, -1.224646799147353207E-16 ) ) ;
#36 = PERSON_AND_ORGANIZATION_ROLE ( 'creator' ) ;
#37 = CONICAL_SURFACE ( 'NONE', #83, 1.499999999999996669, 0.1745329251994261477 ) ;
#38 = SECURITY_CLASSIFICATION_LEVEL ( 'unclassified' ) ;
#39 = CARTESIAN_POINT ( 'NONE',  ( 0.0000000000000000000, 0.0000000000000000000, 0.0000000000000000000 ) ) ;
#40 =( GEOMETRIC_REPRESENTATION_CONTEXT ( 3 ) GLOBAL_UNCERTAINTY_ASSIGNED_CONTEXT ( ( #280 ) ) GLOBAL_UNIT_ASSIGNED_CONTEXT ( ( #216, #11, #148 ) ) REPRESENTATION_CONTEXT ( 'NONE', 'WORKASPACE' ) );
#41 = DIRECTION ( 'NONE',  ( -3.491481338843133355E-15, 1.224646799147353207E-16, -1.000000000000000000 ) ) ;
#42 = CC_DESIGN_DATE_AND_TIME_ASSIGNMENT ( #180, #62, ( #267 ) ) ;
#43 = ADVANCED_FACE ( 'NONE', ( #74, #114 ), #204, .T. ) ;
#44 = PRODUCT_DEFINITION_SHAPE ( 'NONE', 'NONE',  #267 ) ;
#45 = MANIFOLD_SOLID_BREP ( 'Corps-Déplacer/Copier1[1]', #66 ) ;
#46 = EDGE_LOOP ( 'NONE', ( #72 ) ) ;
#47 = DATE_AND_TIME ( #292, #138 ) ;
#48 = EDGE_LOOP ( 'NONE', ( #263 ) ) ;
#49 = CARTESIAN_POINT ( 'NONE',  ( 2.793185071074506684E-14, 1.099999999999998979, 8.000000000000000000 ) ) ;
#50 = EDGE_LOOP ( 'NONE', ( #290 ) ) ;
#51 = CARTESIAN_POINT ( 'NONE',  ( 0.0000000000000000000, 0.0000000000000000000, 0.0000000000000000000 ) ) ;
#52 = EDGE_LOOP ( 'NONE', ( #146 ) ) ;
#53 = CARTESIAN_POINT ( 'NONE',  ( 2.883896417162832445E-14, 0.9499999999999979572, 8.259807621135337286 ) ) ;
#54 = CARTESIAN_POINT ( 'NONE',  ( 6.405924284287273902E-14, -2.246895775456748746E-15, 18.34729635533384240 ) ) ;
#55 = EDGE_CURVE ( 'NONE', #99, #99, #152, .T. ) ;
#56 = DIRECTION ( 'NONE',  ( -3.491481338843133355E-15, 1.224646799147353207E-16, -1.000000000000000000 ) ) ;
#57 = AXIS2_PLACEMENT_3D ( 'NONE', #54, #96, #174 ) ;
#58 = FACE_OUTER_BOUND ( 'NONE', #142, .T. ) ;
#59 = DIRECTION ( 'NONE',  ( -4.275831445896958607E-31, -1.000000000000000000, -1.224646799147353207E-16 ) ) ;
#60 = AXIS2_PLACEMENT_3D ( 'NONE', #202, #162, #67 ) ;
#61 = APPROVAL_PERSON_ORGANIZATION ( #203, #167, #250 ) ;
#62 = DATE_TIME_ROLE ( 'creation_date' ) ;
#63 = DATE_AND_TIME ( #181, #130 ) ;
#64 = CONICAL_SURFACE ( 'NONE', #176, 1.200000000000001732, 0.7853981633974453924 ) ;
#65 = FACE_OUTER_BOUND ( 'NONE', #48, .T. ) ;
#66 = CLOSED_SHELL ( 'NONE', ( #252, #92, #268, #124, #218, #101, #206, #2 ) ) ;
#67 = DIRECTION ( 'NONE',  ( 4.275831445896958607E-31, 1.000000000000000000, 1.224646799147353207E-16 ) ) ;
#68 = APPROVAL ( #179, 'UNSPECIFIED' ) ;
#69 = CC_DESIGN_SECURITY_CLASSIFICATION ( #111, ( #85 ) ) ;
#70 = EDGE_LOOP ( 'NONE', ( #30 ) ) ;
#71 = APPROVAL_ROLE ( '' ) ;
#72 = ORIENTED_EDGE ( 'NONE', *, *, #55, .T. ) ;
#73 = CARTESIAN_POINT ( 'NONE',  ( 8.728703347107833388E-16, 1.099999999999998979, 0.2500000000000000000 ) ) ;
#74 = FACE_OUTER_BOUND ( 'NONE', #147, .T. ) ;
#75 = APPROVAL_DATE_TIME ( #47, #178 ) ;
#76 = CARTESIAN_POINT ( 'NONE',  ( 2.793185071074506684E-14, -9.797174393178825657E-16, 8.000000000000000000 ) ) ;
#77 = VERTEX_POINT ( 'NONE', #49 ) ;
#78 = EDGE_CURVE ( 'NONE', #264, #264, #212, .T. ) ;
#79 = DIRECTION ( 'NONE',  ( 3.491481338843133355E-15, -1.224646799147353207E-16, 1.000000000000000000 ) ) ;
#80 = FACE_OUTER_BOUND ( 'NONE', #190, .T. ) ;
#81 = DIRECTION ( 'NONE',  ( 3.491481338843133355E-15, -1.224646799147353207E-16, 1.000000000000000000 ) ) ;
#82 = FACE_OUTER_BOUND ( 'NONE', #94, .T. ) ;
#83 = AXIS2_PLACEMENT_3D ( 'NONE', #209, #81, #5 ) ;
#84 = AXIS2_PLACEMENT_3D ( 'NONE', #39, #139, #282 ) ;
#85 = PRODUCT_DEFINITION_FORMATION_WITH_SPECIFIED_SOURCE ( 'ANY', '', #106, .NOT_KNOWN. ) ;
#86 = CALENDAR_DATE ( 2021, 1, 12 ) ;
#87 = DATE_AND_TIME ( #279, #34 ) ;
#88 = EDGE_CURVE ( 'NONE', #26, #26, #163, .T. ) ;
#89 = COORDINATED_UNIVERSAL_TIME_OFFSET ( 1, 0, .AHEAD. ) ;
#90 = FACE_OUTER_BOUND ( 'NONE', #46, .T. ) ;
#91 = CARTESIAN_POINT ( 'NONE',  ( 2.883896417162832445E-14, -1.011534696479630343E-15, 8.259807621135337286 ) ) ;
#92 = ADVANCED_FACE ( 'NONE', ( #256, #140 ), #238, .T. ) ;
#93 = AXIS2_PLACEMENT_3D ( 'NONE', #221, #274, #35 ) ;
#94 = EDGE_LOOP ( 'NONE', ( #293 ) ) ;
#95 = APPLICATION_PROTOCOL_DEFINITION ( 'international standard', 'config_control_design', 1994, #21 ) ;
#96 = DIRECTION ( 'NONE',  ( -3.491481338843133355E-15, 1.224646799147353207E-16, -1.000000000000000000 ) ) ;
#97 = ORIENTED_EDGE ( 'NONE', *, *, #184, .F. ) ;
#98 = DIRECTION ( 'NONE',  ( 4.275831445896958607E-31, 1.000000000000000000, 1.224646799147353207E-16 ) ) ;
#99 = VERTEX_POINT ( 'NONE', #123 ) ;
#100 = CC_DESIGN_PERSON_AND_ORGANIZATION_ASSIGNMENT ( #169, #36, ( #267 ) ) ;
#101 = ADVANCED_FACE ( 'NONE', ( #18, #90 ), #182, .T. ) ;
#102 = DIRECTION ( 'NONE',  ( 3.491481338843133355E-15, -1.224646799147353207E-16, 1.000000000000000000 ) ) ;
#103 = DIRECTION ( 'NONE',  ( 3.491481338843133355E-15, -1.224646799147353207E-16, 1.000000000000000000 ) ) ;
#104 = CARTESIAN_POINT ( 'NONE',  ( 1.745740669421566678E-13, -6.123233995736766085E-15, 50.00000000000000000 ) ) ;
#105 = CIRCLE ( 'NONE', #283, 1.499999999999996669 ) ;
#106 = PRODUCT ( '200706', '200706', '', ( #230 ) ) ;
#107 = ADVANCED_FACE ( 'NONE', ( #65 ), #228, .T. ) ;
#108 = SHAPE_DEFINITION_REPRESENTATION ( #44, #155 ) ;
#109 = AXIS2_PLACEMENT_3D ( 'NONE', #235, #121, #265 ) ;
#110 = DATE_AND_TIME ( #156, #227 ) ;
#111 = SECURITY_CLASSIFICATION ( '', '', #38 ) ;
#112 = DIRECTION ( 'NONE',  ( -3.491481338843133355E-15, 1.224646799147353207E-16, -1.000000000000000000 ) ) ;
#113 = COORDINATED_UNIVERSAL_TIME_OFFSET ( 1, 0, .AHEAD. ) ;
#114 = FACE_OUTER_BOUND ( 'NONE', #207, .T. ) ;
#115 = ORIENTED_EDGE ( 'NONE', *, *, #78, .F. ) ;
#116 = CARTESIAN_POINT ( 'NONE',  ( 6.284666409917638777E-14, 0.9499999999999977351, 17.99999999999999645 ) ) ;
#117 = DIRECTION ( 'NONE',  ( -3.491481338843133355E-15, 1.224646799147353207E-16, -1.000000000000000000 ) ) ;
#118 = EDGE_LOOP ( 'NONE', ( #168 ) ) ;
#119 = DIRECTION ( 'NONE',  ( 3.501690807976795645E-31, 1.000000000000000000, 9.856383386231867455E-17 ) ) ;
#120 = AXIS2_PLACEMENT_3D ( 'NONE', #76, #194, #171 ) ;
#121 = DIRECTION ( 'NONE',  ( -3.491481338843133355E-15, 1.224646799147353207E-16, -1.000000000000000000 ) ) ;
#122 = APPROVAL_PERSON_ORGANIZATION ( #192, #178, #71 ) ;
#123 = CARTESIAN_POINT ( 'NONE',  ( 1.735266225405037467E-13, 1.499999999999995559, 49.70000000000000284 ) ) ;
#124 = ADVANCED_FACE ( 'NONE', ( #82, #80 ), #6, .F. ) ;
#125 = EDGE_LOOP ( 'NONE', ( #97 ) ) ;
#126 = PERSON_AND_ORGANIZATION ( #193, #189 ) ;
#127 = DIRECTION ( 'NONE',  ( 0.0000000000000000000, 0.0000000000000000000, 1.000000000000000000 ) ) ;
#128 = FACE_BOUND ( 'NONE', #144, .T. ) ;
#129 = CARTESIAN_POINT ( 'NONE',  ( 2.793185071074506684E-14, 8.248678804640201790E-33, 8.000000000000000000 ) ) ;
#130 = LOCAL_TIME ( 15, 3, 37.00000000000000000, #158 ) ;
#131 = DIRECTION ( 'NONE',  ( -3.491481338843133355E-15, 1.224646799147353207E-16, -1.000000000000000000 ) ) ;
#132 = PERSON_AND_ORGANIZATION ( #193, #189 ) ;
#133 = EDGE_CURVE ( 'NONE', #9, #9, #234, .T. ) ;
#134 = PERSON_AND_ORGANIZATION_ROLE ( 'creator' ) ;
#135 = DATE_TIME_ROLE ( 'classification_date' ) ;
#136 = CARTESIAN_POINT ( 'NONE',  ( 2.883896417162832445E-14, -1.011534696479630343E-15, 8.259807621135337286 ) ) ;
#137 = PERSON_AND_ORGANIZATION_ROLE ( 'classification_officer' ) ;
#138 = LOCAL_TIME ( 15, 3, 37.00000000000000000, #166 ) ;
#139 = DIRECTION ( 'NONE',  ( -3.491481338843133355E-15, 1.224646799147353207E-16, -1.000000000000000000 ) ) ;
#140 = FACE_BOUND ( 'NONE', #70, .T. ) ;
#141 = ADVANCED_FACE ( 'NONE', ( #198 ), #247, .F. ) ;
#142 = EDGE_LOOP ( 'NONE', ( #215 ) ) ;
#143 = CARTESIAN_POINT ( 'NONE',  ( 7.434824022358248687E-14, 1.499999999999994005, 21.29418232784168552 ) ) ;
#144 = EDGE_LOOP ( 'NONE', ( #236 ) ) ;
#145 = CC_DESIGN_PERSON_AND_ORGANIZATION_ASSIGNMENT ( #126, #233, ( #106 ) ) ;
#146 = ORIENTED_EDGE ( 'NONE', *, *, #20, .T. ) ;
#147 = EDGE_LOOP ( 'NONE', ( #269 ) ) ;
#148 =( NAMED_UNIT ( * ) SI_UNIT ( $, .STERADIAN. ) SOLID_ANGLE_UNIT ( ) );
#149 = CYLINDRICAL_SURFACE ( 'NONE', #161, 0.9499999999999995115 ) ;
#150 = CONICAL_SURFACE ( 'NONE', #16, 1.099999999999998979, 0.5235987755982928205 ) ;
#151 = FACE_OUTER_BOUND ( 'NONE', #4, .T. ) ;
#152 = CIRCLE ( 'NONE', #298, 1.500000000000001554 ) ;
#153 = CARTESIAN_POINT ( 'NONE',  ( 2.793185071074506684E-14, -9.797174393178825657E-16, 8.000000000000000000 ) ) ;
#154 = LOCAL_TIME ( 15, 3, 37.00000000000000000, #301 ) ;
#155 = ADVANCED_BREP_SHAPE_REPRESENTATION ( '200706', ( #45, #253, #276 ), #40 ) ;
#156 = CALENDAR_DATE ( 2021, 1, 12 ) ;
#157 = EDGE_CURVE ( 'NONE', #237, #237, #3, .T. ) ;
#158 = COORDINATED_UNIVERSAL_TIME_OFFSET ( 1, 0, .AHEAD. ) ;
#159 = DESIGN_CONTEXT ( 'detailed design', #21, 'design' ) ;
#160 = PERSON_AND_ORGANIZATION ( #193, #189 ) ;
#161 = AXIS2_PLACEMENT_3D ( 'NONE', #197, #231, #31 ) ;
#162 = DIRECTION ( 'NONE',  ( -3.491481338843133355E-15, 1.224646799147353207E-16, -1.000000000000000000 ) ) ;
#163 = CIRCLE ( 'NONE', #17, 0.9499999999999989564 ) ;
#164 = DIRECTION ( 'NONE',  ( -3.491481338843133355E-15, 1.224646799147353207E-16, -1.000000000000000000 ) ) ;
#165 = ORIENTED_EDGE ( 'NONE', *, *, #55, .F. ) ;
#166 = COORDINATED_UNIVERSAL_TIME_OFFSET ( 1, 0, .AHEAD. ) ;
#167 = APPROVAL ( #201, 'UNSPECIFIED' ) ;
#168 = ORIENTED_EDGE ( 'NONE', *, *, #184, .T. ) ;
#169 = PERSON_AND_ORGANIZATION ( #193, #189 ) ;
#170 = PLANE ( 'NONE',  #177 ) ;
#171 = DIRECTION ( 'NONE',  ( 0.0000000000000000000, 1.000000000000000000, 0.0000000000000000000 ) ) ;
#172 = DIRECTION ( 'NONE',  ( -3.501690807976795645E-31, -1.000000000000000000, -9.856383386231867455E-17 ) ) ;
#173 = CARTESIAN_POINT ( 'NONE',  ( 7.434824022358248687E-14, -2.607785222825145383E-15, 21.29418232784168552 ) ) ;
#174 = DIRECTION ( 'NONE',  ( 0.0000000000000000000, 1.000000000000000000, 0.0000000000000000000 ) ) ;
#175 = DIRECTION ( 'NONE',  ( -3.491481338843133355E-15, 1.224646799147353207E-16, -1.000000000000000000 ) ) ;
#176 = AXIS2_PLACEMENT_3D ( 'NONE', #104, #296, #23 ) ;
#177 = AXIS2_PLACEMENT_3D ( 'NONE', #242, #8, #98 ) ;
#178 = APPROVAL ( #195, 'UNSPECIFIED' ) ;
#179 = APPROVAL_STATUS ( 'not_yet_approved' ) ;
#180 = DATE_AND_TIME ( #86, #154 ) ;
#181 = CALENDAR_DATE ( 2021, 1, 12 ) ;
#182 = CYLINDRICAL_SURFACE ( 'NONE', #84, 1.499999999999999112 ) ;
#183 = DIRECTION ( 'NONE',  ( 0.0000000000000000000, 1.000000000000000000, 0.0000000000000000000 ) ) ;
#184 = EDGE_CURVE ( 'NONE', #262, #262, #105, .T. ) ;
#185 = AXIS2_PLACEMENT_3D ( 'NONE', #295, #117, #119 ) ;
#186 = EDGE_LOOP ( 'NONE', ( #165 ) ) ;
#187 = VERTEX_POINT ( 'NONE', #116 ) ;
#188 = PLANE ( 'NONE',  #297 ) ;
#189 = ORGANIZATION ( 'UNSPECIFIED', 'UNSPECIFIED', '' ) ;
#190 = EDGE_LOOP ( 'NONE', ( #27 ) ) ;
#191 = EDGE_LOOP ( 'NONE', ( #229 ) ) ;
#192 = PERSON_AND_ORGANIZATION ( #193, #189 ) ;
#193 = PERSON ( 'UNSPECIFIED', 'UNSPECIFIED', 'UNSPECIFIED', ('UNSPECIFIED'), ('UNSPECIFIED'), ('UNSPECIFIED') ) ;
#194 = DIRECTION ( 'NONE',  ( -3.491481338843133355E-15, 1.224646799147353207E-16, -1.000000000000000000 ) ) ;
#195 = APPROVAL_STATUS ( 'not_yet_approved' ) ;
#196 = CARTESIAN_POINT ( 'NONE',  ( 1.745740669421566678E-13, -6.123233995736766085E-15, 50.00000000000000000 ) ) ;
#197 = CARTESIAN_POINT ( 'NONE',  ( 0.0000000000000000000, 0.0000000000000000000, 0.0000000000000000000 ) ) ;
#198 = FACE_OUTER_BOUND ( 'NONE', #210, .T. ) ;
#199 = AXIS2_PLACEMENT_3D ( 'NONE', #196, #131, #294 ) ;
#200 = AXIS2_PLACEMENT_3D ( 'NONE', #129, #102, #59 ) ;
#201 = APPROVAL_STATUS ( 'not_yet_approved' ) ;
#202 = CARTESIAN_POINT ( 'NONE',  ( -2.193515655028978985E-31, 7.693817222866557370E-33, -6.282478530318531974E-17 ) ) ;
#203 = PERSON_AND_ORGANIZATION ( #193, #189 ) ;
#204 = CYLINDRICAL_SURFACE ( 'NONE', #225, 1.099999999999999423 ) ;
#205 = CC_DESIGN_DATE_AND_TIME_ASSIGNMENT ( #63, #135, ( #111 ) ) ;
#206 = ADVANCED_FACE ( 'NONE', ( #32, #14 ), #64, .T. ) ;
#207 = EDGE_LOOP ( 'NONE', ( #22 ) ) ;
#208 = CARTESIAN_POINT ( 'NONE',  ( 1.892735826383160919E-31, 0.9556624327025945442, 5.421010862427522170E-17 ) ) ;
#209 = CARTESIAN_POINT ( 'NONE',  ( 7.434824022358248687E-14, -2.607785222825145383E-15, 21.29418232784168552 ) ) ;
#210 = EDGE_LOOP ( 'NONE', ( #239 ) ) ;
#211 = VERTEX_POINT ( 'NONE', #73 ) ;
#212 = CIRCLE ( 'NONE', #60, 0.9556624327025945442 ) ;
#213 = EDGE_LOOP ( 'NONE', ( #286 ) ) ;
#214 = APPLICATION_PROTOCOL_DEFINITION ( 'international standard', 'config_control_design', 1994, #251 ) ;
#215 = ORIENTED_EDGE ( 'NONE', *, *, #33, .T. ) ;
#216 =( LENGTH_UNIT ( ) NAMED_UNIT ( * ) SI_UNIT ( .MILLI., .METRE. ) );
#217 = CARTESIAN_POINT ( 'NONE',  ( 6.284666409917640040E-14, -2.168404344971008868E-15, 18.00000000000000000 ) ) ;
#218 = ADVANCED_FACE ( 'NONE', ( #128, #244 ), #37, .T. ) ;
#219 = DIRECTION ( 'NONE',  ( 1.000000000000000000, 0.0000000000000000000, 0.0000000000000000000 ) ) ;
#220 = FACE_BOUND ( 'NONE', #25, .T. ) ;
#221 = CARTESIAN_POINT ( 'NONE',  ( -1.096757827514489492E-31, 3.846908611433278685E-33, -3.141239265159265987E-17 ) ) ;
#222 = DIRECTION ( 'NONE',  ( -3.491481338843133355E-15, 1.224646799147353207E-16, -1.000000000000000000 ) ) ;
#223 = AXIS2_PLACEMENT_3D ( 'NONE', #153, #175, #245 ) ;
#224 = DIRECTION ( 'NONE',  ( -3.491481338843133355E-15, 1.224646799147353207E-16, -1.000000000000000000 ) ) ;
#225 = AXIS2_PLACEMENT_3D ( 'NONE', #284, #41, #19 ) ;
#226 = PERSON_AND_ORGANIZATION ( #193, #189 ) ;
#227 = LOCAL_TIME ( 15, 3, 37.00000000000000000, #113 ) ;
#228 = PLANE ( 'NONE',  #200 ) ;
#229 = ORIENTED_EDGE ( 'NONE', *, *, #300, .T. ) ;
#230 = MECHANICAL_CONTEXT ( 'NONE', #251, 'mechanical' ) ;
#231 = DIRECTION ( 'NONE',  ( -3.491481338843133355E-15, 1.224646799147353207E-16, -1.000000000000000000 ) ) ;
#232 = ORIENTED_EDGE ( 'NONE', *, *, #88, .F. ) ;
#233 = PERSON_AND_ORGANIZATION_ROLE ( 'design_owner' ) ;
#234 = CIRCLE ( 'NONE', #223, 1.100000000000000089 ) ;
#235 = CARTESIAN_POINT ( 'NONE',  ( 6.284666409917638777E-14, -2.204364238465235033E-15, 17.99999999999999645 ) ) ;
#236 = ORIENTED_EDGE ( 'NONE', *, *, #241, .F. ) ;
#237 = VERTEX_POINT ( 'NONE', #243 ) ;
#238 = CONICAL_SURFACE ( 'NONE', #275, 0.9499999999999989564, 0.5235987755982937086 ) ;
#239 = ORIENTED_EDGE ( 'NONE', *, *, #78, .T. ) ;
#240 = PRODUCT_RELATED_PRODUCT_CATEGORY ( 'detail', '', ( #106 ) ) ;
#241 = EDGE_CURVE ( 'NONE', #287, #287, #254, .T. ) ;
#242 = CARTESIAN_POINT ( 'NONE',  ( 1.745740669421566678E-13, 8.998558695971067645E-33, 50.00000000000000000 ) ) ;
#243 = CARTESIAN_POINT ( 'NONE',  ( 1.745740669421566678E-13, 1.199999999999995515, 50.00000000000000000 ) ) ;
#244 = FACE_OUTER_BOUND ( 'NONE', #118, .T. ) ;
#245 = DIRECTION ( 'NONE',  ( 0.0000000000000000000, 1.000000000000000000, 0.0000000000000000000 ) ) ;
#246 = FACE_OUTER_BOUND ( 'NONE', #191, .T. ) ;
#247 = PLANE ( 'NONE',  #93 ) ;
#248 = CC_DESIGN_APPROVAL ( #68, ( #85 ) ) ;
#249 = APPROVAL_DATE_TIME ( #110, #167 ) ;
#250 = APPROVAL_ROLE ( '' ) ;
#251 = APPLICATION_CONTEXT ( 'configuration controlled 3d designs of mechanical parts and assemblies' ) ;
#252 = ADVANCED_FACE ( 'NONE', ( #272 ), #188, .F. ) ;
#253 = MANIFOLD_SOLID_BREP ( 'Corps-Déplacer/Copier1[2]', #285 ) ;
#254 = CIRCLE ( 'NONE', #57, 0.9803844939755804733 ) ;
#255 = APPROVAL_DATE_TIME ( #87, #68 ) ;
#256 = FACE_OUTER_BOUND ( 'NONE', #50, .T. ) ;
#257 = CIRCLE ( 'NONE', #120, 1.100000000000000089 ) ;
#258 = CC_DESIGN_PERSON_AND_ORGANIZATION_ASSIGNMENT ( #132, #134, ( #85 ) ) ;
#259 = CC_DESIGN_APPROVAL ( #167, ( #111 ) ) ;
#260 = DIRECTION ( 'NONE',  ( 0.0000000000000000000, 1.000000000000000000, 0.0000000000000000000 ) ) ;
#261 = APPROVAL_PERSON_ORGANIZATION ( #160, #68, #277 ) ;
#262 = VERTEX_POINT ( 'NONE', #143 ) ;
#263 = ORIENTED_EDGE ( 'NONE', *, *, #133, .F. ) ;
#264 = VERTEX_POINT ( 'NONE', #208 ) ;
#265 = DIRECTION ( 'NONE',  ( 0.0000000000000000000, 1.000000000000000000, 0.0000000000000000000 ) ) ;
#266 = CARTESIAN_POINT ( 'NONE',  ( 2.793185071074506684E-14, 1.099999999999998979, 8.000000000000000000 ) ) ;
#267 = PRODUCT_DEFINITION ( 'UNKNOWN', '', #85, #159 ) ;
#268 = ADVANCED_FACE ( 'NONE', ( #151, #58 ), #149, .T. ) ;
#269 = ORIENTED_EDGE ( 'NONE', *, *, #300, .F. ) ;
#270 = DIRECTION ( 'NONE',  ( -4.275831445896958607E-31, -1.000000000000000000, -1.224646799147353207E-16 ) ) ;
#271 = DIRECTION ( 'NONE',  ( 0.0000000000000000000, 1.000000000000000000, 0.0000000000000000000 ) ) ;
#272 = FACE_OUTER_BOUND ( 'NONE', #52, .T. ) ;
#273 = AXIS2_PLACEMENT_3D ( 'NONE', #217, #222, #12 ) ;
#274 = DIRECTION ( 'NONE',  ( 3.491481338843133355E-15, -1.224646799147353207E-16, 1.000000000000000000 ) ) ;
#275 = AXIS2_PLACEMENT_3D ( 'NONE', #136, #224, #303 ) ;
#276 = AXIS2_PLACEMENT_3D ( 'NONE', #51, #127, #219 ) ;
#277 = APPROVAL_ROLE ( '' ) ;
#278 = ADVANCED_FACE ( 'NONE', ( #220, #246 ), #150, .T. ) ;
#279 = CALENDAR_DATE ( 2021, 1, 12 ) ;
#280 = UNCERTAINTY_MEASURE_WITH_UNIT (LENGTH_MEASURE( 1.000000000000000082E-05 ), #216, 'distance_accuracy_value', 'NONE');
#281 = PERSON_AND_ORGANIZATION_ROLE ( 'design_supplier' ) ;
#282 = DIRECTION ( 'NONE',  ( 4.275831445896958607E-31, 1.000000000000000000, 1.224646799147353454E-16 ) ) ;
#283 = AXIS2_PLACEMENT_3D ( 'NONE', #173, #56, #271 ) ;
#284 = CARTESIAN_POINT ( 'NONE',  ( 0.0000000000000000000, 0.0000000000000000000, 0.0000000000000000000 ) ) ;
#285 = CLOSED_SHELL ( 'NONE', ( #141, #278, #43, #107 ) ) ;
#286 = ORIENTED_EDGE ( 'NONE', *, *, #157, .F. ) ;
#287 = VERTEX_POINT ( 'NONE', #29 ) ;
#288 = CC_DESIGN_APPROVAL ( #178, ( #267 ) ) ;
#289 = CARTESIAN_POINT ( 'NONE',  ( 2.793185071074506684E-14, 8.248678804640201790E-33, 8.000000000000000000 ) ) ;
#290 = ORIENTED_EDGE ( 'NONE', *, *, #20, .F. ) ;
#291 = ORIENTED_EDGE ( 'NONE', *, *, #157, .T. ) ;
#292 = CALENDAR_DATE ( 2021, 1, 12 ) ;
#293 = ORIENTED_EDGE ( 'NONE', *, *, #33, .F. ) ;
#294 = DIRECTION ( 'NONE',  ( 0.0000000000000000000, 1.000000000000000000, 0.0000000000000000000 ) ) ;
#295 = CARTESIAN_POINT ( 'NONE',  ( 8.728703347107829444E-16, -3.061616997868381785E-17, 0.2499999999999998890 ) ) ;
#296 = DIRECTION ( 'NONE',  ( -3.491481338843133355E-15, 1.224646799147353207E-16, -1.000000000000000000 ) ) ;
#297 = AXIS2_PLACEMENT_3D ( 'NONE', #289, #79, #270 ) ;
#298 = AXIS2_PLACEMENT_3D ( 'NONE', #1, #112, #183 ) ;
#299 = CC_DESIGN_PERSON_AND_ORGANIZATION_ASSIGNMENT ( #302, #281, ( #85 ) ) ;
#300 = EDGE_CURVE ( 'NONE', #211, #211, #24, .T. ) ;
#301 = COORDINATED_UNIVERSAL_TIME_OFFSET ( 1, 0, .AHEAD. ) ;
#302 = PERSON_AND_ORGANIZATION ( #193, #189 ) ;
#303 = DIRECTION ( 'NONE',  ( 0.0000000000000000000, 1.000000000000000000, 0.0000000000000000000 ) ) ;
ENDSEC;
END-ISO-10303-21;
