ISO-10303-21;
HEADER;
FILE_DESCRIPTION (( 'STEP AP203' ),
    '1' );
FILE_NAME ('200705.step',
    '2021-12-02T07:16:27',
    ( '' ),
    ( '' ),
    'SwSTEP 2.0',
    'SolidWorks 2019',
    '' );
FILE_SCHEMA (( 'CONFIG_CONTROL_DESIGN' ));
ENDSEC;

DATA;
#1 = DATE_AND_TIME ( #125, #76 ) ;
#2 = CC_DESIGN_APPROVAL ( #209, ( #238 ) ) ;
#3 = EDGE_LOOP ( 'NONE', ( #16 ) ) ;
#4 = CARTESIAN_POINT ( 'NONE',  ( 3.612429800294234159E-14, -1.267069808696350687E-15, 10.34641016151378423 ) ) ;
#5 = APPLICATION_CONTEXT ( 'configuration controlled 3d designs of mechanical parts and assemblies' ) ;
#6 = PERSON_AND_ORGANIZATION_ROLE ( 'creator' ) ;
#7 = CARTESIAN_POINT ( 'NONE',  ( 9.383831593535533002E-14, -3.291405054041851591E-15, 26.87636187293720269 ) ) ;
#8 = CARTESIAN_POINT ( 'NONE',  ( 2.129803616694311221E-13, -7.470345474798856659E-15, 61.00000000000000000 ) ) ;
#9 = ADVANCED_FACE ( 'NONE', ( #205, #283 ), #34, .T. ) ;
#10 = LOCAL_TIME ( 8, 16, 27.00000000000000000, #257 ) ;
#11 = CIRCLE ( 'NONE', #46, 1.150000000000001243 ) ;
#12 =( LENGTH_UNIT ( ) NAMED_UNIT ( * ) SI_UNIT ( .MILLI., .METRE. ) );
#13 = COORDINATED_UNIVERSAL_TIME_OFFSET ( 1, 0, .AHEAD. ) ;
#14 = CC_DESIGN_PERSON_AND_ORGANIZATION_ASSIGNMENT ( #266, #6, ( #114 ) ) ;
#15 = FACE_BOUND ( 'NONE', #156, .T. ) ;
#16 = ORIENTED_EDGE ( 'NONE', *, *, #170, .T. ) ;
#17 = DIRECTION ( 'NONE',  ( -4.275831445896959482E-31, -1.000000000000000000, -1.224646799147353454E-16 ) ) ;
#18 = ORIENTED_EDGE ( 'NONE', *, *, #170, .F. ) ;
#19 = DIRECTION ( 'NONE',  ( 0.0000000000000000000, 1.000000000000000000, 0.0000000000000000000 ) ) ;
#20 = ORIENTED_EDGE ( 'NONE', *, *, #259, .F. ) ;
#21 = DIRECTION ( 'NONE',  ( -4.275831445896959482E-31, -1.000000000000000000, -1.224646799147353454E-16 ) ) ;
#22 = APPROVAL_STATUS ( 'not_yet_approved' ) ;
#23 = EDGE_LOOP ( 'NONE', ( #262 ) ) ;
#24 = CARTESIAN_POINT ( 'NONE',  ( 2.119329172677781757E-13, -7.433606070824434221E-15, 60.69999999999999574 ) ) ;
#25 = PERSON_AND_ORGANIZATION_ROLE ( 'creator' ) ;
#26 = ORIENTED_EDGE ( 'NONE', *, *, #259, .T. ) ;
#27 = AXIS2_PLACEMENT_3D ( 'NONE', #112, #86, #30 ) ;
#28 = AXIS2_PLACEMENT_3D ( 'NONE', #148, #225, #248 ) ;
#29 = APPROVAL ( #281, 'UNSPECIFIED' ) ;
#30 = DIRECTION ( 'NONE',  ( 4.275831445896959482E-31, 1.000000000000000000, 1.224646799147353454E-16 ) ) ;
#31 = ORIENTED_EDGE ( 'NONE', *, *, #135, .F. ) ;
#32 = APPROVAL_ROLE ( '' ) ;
#33 = ADVANCED_FACE ( 'NONE', ( #211, #287 ), #142, .F. ) ;
#34 = CONICAL_SURFACE ( 'NONE', #210, 1.499999999999996003, 0.1745329251994270359 ) ;
#35 = CIRCLE ( 'NONE', #294, 1.399999999999999911 ) ;
#36 = DIRECTION ( 'NONE',  ( 0.0000000000000000000, 1.000000000000000000, 0.0000000000000000000 ) ) ;
#37 = EDGE_LOOP ( 'NONE', ( #38 ) ) ;
#38 = ORIENTED_EDGE ( 'NONE', *, *, #196, .T. ) ;
#39 = FACE_OUTER_BOUND ( 'NONE', #227, .T. ) ;
#40 = DIRECTION ( 'NONE',  ( 0.0000000000000000000, 1.000000000000000000, 0.0000000000000000000 ) ) ;
#41 = CC_DESIGN_PERSON_AND_ORGANIZATION_ASSIGNMENT ( #187, #25, ( #238 ) ) ;
#42 = DIRECTION ( 'NONE',  ( -3.491481338843133355E-15, 1.224646799147353454E-16, -1.000000000000000000 ) ) ;
#43 = AXIS2_PLACEMENT_3D ( 'NONE', #59, #302, #82 ) ;
#44 = VERTEX_POINT ( 'NONE', #165 ) ;
#45 = APPROVAL_PERSON_ORGANIZATION ( #278, #244, #32 ) ;
#46 = AXIS2_PLACEMENT_3D ( 'NONE', #275, #176, #146 ) ;
#47 = CC_DESIGN_PERSON_AND_ORGANIZATION_ASSIGNMENT ( #208, #95, ( #238 ) ) ;
#48 = EDGE_CURVE ( 'NONE', #220, #220, #155, .T. ) ;
#49 = CALENDAR_DATE ( 2021, 2, 12 ) ;
#50 = DIRECTION ( 'NONE',  ( -3.491481338843133355E-15, 1.224646799147353454E-16, -1.000000000000000000 ) ) ;
#51 = APPLICATION_PROTOCOL_DEFINITION ( 'international standard', 'config_control_design', 1994, #158 ) ;
#52 = CIRCLE ( 'NONE', #219, 1.200000000000002842 ) ;
#53 = CIRCLE ( 'NONE', #193, 1.399999999999998579 ) ;
#54 = CYLINDRICAL_SURFACE ( 'NONE', #118, 1.499999999999999334 ) ;
#55 = EDGE_LOOP ( 'NONE', ( #31 ) ) ;
#56 = CARTESIAN_POINT ( 'NONE',  ( 8.728703347107833388E-14, -3.061616997868383831E-15, 25.00000000000000000 ) ) ;
#57 = APPROVAL_STATUS ( 'not_yet_approved' ) ;
#58 = ORIENTED_EDGE ( 'NONE', *, *, #108, .F. ) ;
#59 = CARTESIAN_POINT ( 'NONE',  ( 2.129803616694311221E-13, 8.998558695971062171E-33, 61.00000000000000000 ) ) ;
#60 = DIRECTION ( 'NONE',  ( 3.491481338843133355E-15, -1.224646799147353454E-16, 1.000000000000000000 ) ) ;
#61 = AXIS2_PLACEMENT_3D ( 'NONE', #186, #285, #40 ) ;
#62 = EDGE_LOOP ( 'NONE', ( #129 ) ) ;
#63 = DIRECTION ( 'NONE',  ( 0.0000000000000000000, -1.000000000000000000, 0.0000000000000000000 ) ) ;
#64 = CALENDAR_DATE ( 2021, 2, 12 ) ;
#65 = CARTESIAN_POINT ( 'NONE',  ( 2.129803616694311221E-13, -7.470345474798856659E-15, 61.00000000000000000 ) ) ;
#66 = DIRECTION ( 'NONE',  ( -3.491481338843133355E-15, 1.224646799147353454E-16, -1.000000000000000000 ) ) ;
#67 = AXIS2_PLACEMENT_3D ( 'NONE', #290, #183, #126 ) ;
#68 = PERSON ( 'UNSPECIFIED', 'UNSPECIFIED', 'UNSPECIFIED', ('UNSPECIFIED'), ('UNSPECIFIED'), ('UNSPECIFIED') ) ;
#69 = CONICAL_SURFACE ( 'NONE', #249, 1.200000000000002842, 0.7853981633974453924 ) ;
#70 = CC_DESIGN_PERSON_AND_ORGANIZATION_ASSIGNMENT ( #296, #74, ( #189 ) ) ;
#71 = DIRECTION ( 'NONE',  ( 0.0000000000000000000, 1.000000000000000000, 0.0000000000000000000 ) ) ;
#72 = CARTESIAN_POINT ( 'NONE',  ( 3.491481338843133355E-14, 1.399999999999998579, 10.00000000000000000 ) ) ;
#73 = SECURITY_CLASSIFICATION_LEVEL ( 'unclassified' ) ;
#74 = PERSON_AND_ORGANIZATION_ROLE ( 'design_owner' ) ;
#75 = DIRECTION ( 'NONE',  ( 3.491481338843133355E-15, -1.224646799147353454E-16, 1.000000000000000000 ) ) ;
#76 = LOCAL_TIME ( 8, 16, 27.00000000000000000, #13 ) ;
#77 = ORIENTED_EDGE ( 'NONE', *, *, #108, .T. ) ;
#78 = DIRECTION ( 'NONE',  ( -3.491481338843133355E-15, 1.224646799147353454E-16, -1.000000000000000000 ) ) ;
#79 = CC_DESIGN_PERSON_AND_ORGANIZATION_ASSIGNMENT ( #169, #145, ( #144 ) ) ;
#80 = ADVANCED_BREP_SHAPE_REPRESENTATION ( '200705', ( #243, #138, #288 ), #235 ) ;
#81 = ORIENTED_EDGE ( 'NONE', *, *, #177, .F. ) ;
#82 = DIRECTION ( 'NONE',  ( 4.275831445896959482E-31, 1.000000000000000000, 1.224646799147353454E-16 ) ) ;
#83 = CC_DESIGN_APPROVAL ( #29, ( #144 ) ) ;
#84 = DIRECTION ( 'NONE',  ( -3.491481338843133355E-15, 1.224646799147353454E-16, -1.000000000000000000 ) ) ;
#85 = ORIENTED_EDGE ( 'NONE', *, *, #48, .T. ) ;
#86 = DIRECTION ( 'NONE',  ( -3.491481338843133355E-15, 1.224646799147353454E-16, -1.000000000000000000 ) ) ;
#87 = ADVANCED_FACE ( 'NONE', ( #231, #265 ), #162, .T. ) ;
#88 = FACE_OUTER_BOUND ( 'NONE', #269, .T. ) ;
#89 = FACE_OUTER_BOUND ( 'NONE', #151, .T. ) ;
#90 = ADVANCED_FACE ( 'NONE', ( #88, #39 ), #188, .T. ) ;
#91 = ORIENTED_EDGE ( 'NONE', *, *, #101, .T. ) ;
#92 = AXIS2_PLACEMENT_3D ( 'NONE', #136, #207, #113 ) ;
#93 = CARTESIAN_POINT ( 'NONE',  ( 2.119329172677781757E-13, 1.499999999999995559, 60.69999999999999574 ) ) ;
#94 = ORIENTED_EDGE ( 'NONE', *, *, #101, .F. ) ;
#95 = PERSON_AND_ORGANIZATION_ROLE ( 'design_supplier' ) ;
#96 = AXIS2_PLACEMENT_3D ( 'NONE', #192, #280, #17 ) ;
#97 = DIRECTION ( 'NONE',  ( 4.126992737972652260E-31, 1.000000000000000000, 1.161645184805898735E-16 ) ) ;
#98 = VERTEX_POINT ( 'NONE', #251 ) ;
#99 = DIRECTION ( 'NONE',  ( -3.491481338843133355E-15, 1.224646799147353454E-16, -1.000000000000000000 ) ) ;
#100 = EDGE_LOOP ( 'NONE', ( #105 ) ) ;
#101 = EDGE_CURVE ( 'NONE', #139, #139, #214, .T. ) ;
#102 = CARTESIAN_POINT ( 'NONE',  ( 3.491481338843133355E-14, 1.399999999999998579, 10.00000000000000000 ) ) ;
#103 = CARTESIAN_POINT ( 'NONE',  ( 1.326868571375568536E-31, -4.654028451324103720E-33, 3.800302629757754339E-17 ) ) ;
#104 = VERTEX_POINT ( 'NONE', #247 ) ;
#105 = ORIENTED_EDGE ( 'NONE', *, *, #213, .F. ) ;
#106 = CIRCLE ( 'NONE', #289, 1.230384493975579252 ) ;
#107 = DIRECTION ( 'NONE',  ( -3.491481338843133355E-15, 1.224646799147353454E-16, -1.000000000000000000 ) ) ;
#108 = EDGE_CURVE ( 'NONE', #190, #190, #182, .T. ) ;
#109 = APPROVAL_ROLE ( '' ) ;
#110 = ORIENTED_EDGE ( 'NONE', *, *, #177, .T. ) ;
#111 = SHAPE_DEFINITION_REPRESENTATION ( #140, #80 ) ;
#112 = CARTESIAN_POINT ( 'NONE',  ( 8.728703347107833388E-14, -3.035766082959412415E-15, 25.00000000000000000 ) ) ;
#113 = DIRECTION ( 'NONE',  ( 4.275831445896959482E-31, 1.000000000000000000, 1.224646799147353454E-16 ) ) ;
#114 = PRODUCT_DEFINITION ( 'UNKNOWN', '', #238, #217 ) ;
#115 = DIRECTION ( 'NONE',  ( 3.491481338843133355E-15, -1.224646799147353454E-16, 1.000000000000000000 ) ) ;
#116 = EDGE_CURVE ( 'NONE', #44, #44, #52, .T. ) ;
#117 = DIRECTION ( 'NONE',  ( 3.491481338843133355E-15, -1.224646799147353454E-16, 1.000000000000000000 ) ) ;
#118 = AXIS2_PLACEMENT_3D ( 'NONE', #223, #107, #277 ) ;
#119 = FACE_OUTER_BOUND ( 'NONE', #174, .T. ) ;
#120 = CC_DESIGN_DATE_AND_TIME_ASSIGNMENT ( #1, #206, ( #144 ) ) ;
#121 = FACE_OUTER_BOUND ( 'NONE', #3, .T. ) ;
#122 = FACE_OUTER_BOUND ( 'NONE', #240, .T. ) ;
#123 = FACE_OUTER_BOUND ( 'NONE', #279, .T. ) ;
#124 = DATE_AND_TIME ( #64, #10 ) ;
#125 = CALENDAR_DATE ( 2021, 2, 12 ) ;
#126 = DIRECTION ( 'NONE',  ( 4.275831445896959482E-31, 1.000000000000000000, 1.224646799147353454E-16 ) ) ;
#127 = APPROVAL_DATE_TIME ( #261, #209 ) ;
#128 = APPROVAL_ROLE ( '' ) ;
#129 = ORIENTED_EDGE ( 'NONE', *, *, #135, .T. ) ;
#130 = DIRECTION ( 'NONE',  ( -3.491481338843133355E-15, 1.224646799147353454E-16, -1.000000000000000000 ) ) ;
#131 = ORGANIZATION ( 'UNSPECIFIED', 'UNSPECIFIED', '' ) ;
#132 = AXIS2_PLACEMENT_3D ( 'NONE', #4, #66, #260 ) ;
#133 = FACE_OUTER_BOUND ( 'NONE', #62, .T. ) ;
#134 = AXIS2_PLACEMENT_3D ( 'NONE', #103, #117, #256 ) ;
#135 = EDGE_CURVE ( 'NONE', #137, #137, #242, .T. ) ;
#136 = CARTESIAN_POINT ( 'NONE',  ( 0.0000000000000000000, 0.0000000000000000000, 0.0000000000000000000 ) ) ;
#137 = VERTEX_POINT ( 'NONE', #102 ) ;
#138 = MANIFOLD_SOLID_BREP ( 'Corps-Déplacer/Copier1[2]', #175 ) ;
#139 = VERTEX_POINT ( 'NONE', #215 ) ;
#140 = PRODUCT_DEFINITION_SHAPE ( 'NONE', 'NONE',  #114 ) ;
#141 = CONICAL_SURFACE ( 'NONE', #272, 1.399999999999998579, 0.7853981633974435050 ) ;
#142 = TOROIDAL_SURFACE ( 'NONE', #27, 3.200000000000000178, 2.000000000000000888 ) ;
#143 = UNCERTAINTY_MEASURE_WITH_UNIT (LENGTH_MEASURE( 1.000000000000000082E-05 ), #12, 'distance_accuracy_value', 'NONE');
#144 = SECURITY_CLASSIFICATION ( '', '', #73 ) ;
#145 = PERSON_AND_ORGANIZATION_ROLE ( 'classification_officer' ) ;
#146 = DIRECTION ( 'NONE',  ( 4.275831445896959482E-31, 1.000000000000000000, 1.224646799147353454E-16 ) ) ;
#147 = DATE_AND_TIME ( #49, #241 ) ;
#148 = CARTESIAN_POINT ( 'NONE',  ( 3.612429800294234159E-14, -1.267069808696350687E-15, 10.34641016151378423 ) ) ;
#149 = MECHANICAL_CONTEXT ( 'NONE', #158, 'mechanical' ) ;
#150 = CONICAL_SURFACE ( 'NONE', #28, 1.199999999999998401, 0.5235987755982924874 ) ;
#151 = EDGE_LOOP ( 'NONE', ( #26 ) ) ;
#152 = EDGE_LOOP ( 'NONE', ( #184 ) ) ;
#153 = DIRECTION ( 'NONE',  ( -3.491481338843133355E-15, 1.224646799147353454E-16, -1.000000000000000000 ) ) ;
#154 = CC_DESIGN_SECURITY_CLASSIFICATION ( #144, ( #238 ) ) ;
#155 = CIRCLE ( 'NONE', #132, 1.199999999999998401 ) ;
#156 = EDGE_LOOP ( 'NONE', ( #255 ) ) ;
#157 = DIRECTION ( 'NONE',  ( 0.0000000000000000000, 1.000000000000000000, 0.0000000000000000000 ) ) ;
#158 = APPLICATION_CONTEXT ( 'configuration controlled 3d designs of mechanical parts and assemblies' ) ;
#159 = COORDINATED_UNIVERSAL_TIME_OFFSET ( 1, 0, .AHEAD. ) ;
#160 = ORIENTED_EDGE ( 'NONE', *, *, #48, .F. ) ;
#161 = CARTESIAN_POINT ( 'NONE',  ( 3.491481338843133355E-14, -1.224646799147353454E-15, 10.00000000000000000 ) ) ;
#162 = CYLINDRICAL_SURFACE ( 'NONE', #92, 1.399999999999999245 ) ;
#163 = CARTESIAN_POINT ( 'NONE',  ( 3.612429800294234159E-14, 1.199999999999997069, 10.34641016151378423 ) ) ;
#164 = ADVANCED_FACE ( 'NONE', ( #133 ), #237, .F. ) ;
#165 = CARTESIAN_POINT ( 'NONE',  ( 2.129803616694311221E-13, 1.199999999999995515, 61.00000000000000000 ) ) ;
#166 = FACE_BOUND ( 'NONE', #233, .T. ) ;
#167 = PRODUCT_RELATED_PRODUCT_CATEGORY ( 'detail', '', ( #189 ) ) ;
#168 = CC_DESIGN_APPROVAL ( #244, ( #114 ) ) ;
#169 = PERSON_AND_ORGANIZATION ( #68, #131 ) ;
#170 = EDGE_CURVE ( 'NONE', #200, #200, #11, .T. ) ;
#171 = FACE_BOUND ( 'NONE', #179, .T. ) ;
#172 = PLANE ( 'NONE',  #43 ) ;
#173 = APPROVAL_PERSON_ORGANIZATION ( #181, #29, #128 ) ;
#174 = EDGE_LOOP ( 'NONE', ( #58 ) ) ;
#175 = CLOSED_SHELL ( 'NONE', ( #218, #292, #87, #221 ) ) ;
#176 = DIRECTION ( 'NONE',  ( -3.491481338843133355E-15, 1.224646799147353454E-16, -1.000000000000000000 ) ) ;
#177 = EDGE_CURVE ( 'NONE', #104, #104, #267, .T. ) ;
#178 = DIRECTION ( 'NONE',  ( 1.000000000000000000, 0.0000000000000000000, 0.0000000000000000000 ) ) ;
#179 = EDGE_LOOP ( 'NONE', ( #85 ) ) ;
#180 = DATE_TIME_ROLE ( 'creation_date' ) ;
#181 = PERSON_AND_ORGANIZATION ( #68, #131 ) ;
#182 = CIRCLE ( 'NONE', #258, 1.500000000000002887 ) ;
#183 = DIRECTION ( 'NONE',  ( -3.491481338843133355E-15, 1.224646799147353454E-16, -1.000000000000000000 ) ) ;
#184 = ORIENTED_EDGE ( 'NONE', *, *, #116, .F. ) ;
#185 = ADVANCED_FACE ( 'NONE', ( #229, #122 ), #54, .T. ) ;
#186 = CARTESIAN_POINT ( 'NONE',  ( 9.383831593535533002E-14, -3.291405054041851591E-15, 26.87636187293720269 ) ) ;
#187 = PERSON_AND_ORGANIZATION ( #68, #131 ) ;
#188 = CYLINDRICAL_SURFACE ( 'NONE', #67, 1.199999999999999289 ) ;
#189 = PRODUCT ( '200705', '200705', '', ( #149 ) ) ;
#190 = VERTEX_POINT ( 'NONE', #93 ) ;
#191 = LOCAL_TIME ( 8, 16, 27.00000000000000000, #228 ) ;
#192 = CARTESIAN_POINT ( 'NONE',  ( 3.491481338843133355E-14, 1.049831847863298683E-32, 10.00000000000000000 ) ) ;
#193 = AXIS2_PLACEMENT_3D ( 'NONE', #297, #78, #97 ) ;
#194 =( NAMED_UNIT ( * ) SI_UNIT ( $, .STERADIAN. ) SOLID_ANGLE_UNIT ( ) );
#195 = CARTESIAN_POINT ( 'NONE',  ( 7.570943305532645426E-31, 1.150000000000001243, 2.168404344971008868E-16 ) ) ;
#196 = EDGE_CURVE ( 'NONE', #199, #199, #35, .T. ) ;
#197 = FACE_OUTER_BOUND ( 'NONE', #55, .T. ) ;
#198 = PLANE ( 'NONE',  #134 ) ;
#199 = VERTEX_POINT ( 'NONE', #72 ) ;
#200 = VERTEX_POINT ( 'NONE', #195 ) ;
#201 = ADVANCED_FACE ( 'NONE', ( #202 ), #172, .F. ) ;
#202 = FACE_OUTER_BOUND ( 'NONE', #152, .T. ) ;
#203 = DIRECTION ( 'NONE',  ( 0.0000000000000000000, 0.0000000000000000000, 1.000000000000000000 ) ) ;
#204 = CLOSED_SHELL ( 'NONE', ( #164, #271, #90, #33, #9, #185, #282, #201 ) ) ;
#205 = FACE_BOUND ( 'NONE', #100, .T. ) ;
#206 = DATE_TIME_ROLE ( 'classification_date' ) ;
#207 = DIRECTION ( 'NONE',  ( -3.491481338843133355E-15, 1.224646799147353454E-16, -1.000000000000000000 ) ) ;
#208 = PERSON_AND_ORGANIZATION ( #68, #131 ) ;
#209 = APPROVAL ( #22, 'UNSPECIFIED' ) ;
#210 = AXIS2_PLACEMENT_3D ( 'NONE', #7, #60, #63 ) ;
#211 = FACE_OUTER_BOUND ( 'NONE', #230, .T. ) ;
#212 = CALENDAR_DATE ( 2021, 2, 12 ) ;
#213 = EDGE_CURVE ( 'NONE', #224, #224, #106, .T. ) ;
#214 = CIRCLE ( 'NONE', #61, 1.499999999999996003 ) ;
#215 = CARTESIAN_POINT ( 'NONE',  ( 9.383831593535533002E-14, 1.499999999999992673, 26.87636187293720269 ) ) ;
#216 = DIRECTION ( 'NONE',  ( -3.491481338843133355E-15, 1.224646799147353454E-16, -1.000000000000000000 ) ) ;
#217 = DESIGN_CONTEXT ( 'detailed design', #5, 'design' ) ;
#218 = ADVANCED_FACE ( 'NONE', ( #121 ), #198, .F. ) ;
#219 = AXIS2_PLACEMENT_3D ( 'NONE', #65, #42, #263 ) ;
#220 = VERTEX_POINT ( 'NONE', #163 ) ;
#221 = ADVANCED_FACE ( 'NONE', ( #123 ), #298, .T. ) ;
#222 = LOCAL_TIME ( 8, 16, 27.00000000000000000, #159 ) ;
#223 = CARTESIAN_POINT ( 'NONE',  ( 0.0000000000000000000, 0.0000000000000000000, 0.0000000000000000000 ) ) ;
#224 = VERTEX_POINT ( 'NONE', #253 ) ;
#225 = DIRECTION ( 'NONE',  ( -3.491481338843133355E-15, 1.224646799147353454E-16, -1.000000000000000000 ) ) ;
#226 = CARTESIAN_POINT ( 'NONE',  ( 8.849961221477469775E-14, -3.104148534859897544E-15, 25.34729635533384595 ) ) ;
#227 = EDGE_LOOP ( 'NONE', ( #110 ) ) ;
#228 = COORDINATED_UNIVERSAL_TIME_OFFSET ( 1, 0, .AHEAD. ) ;
#229 = FACE_OUTER_BOUND ( 'NONE', #252, .T. ) ;
#230 = EDGE_LOOP ( 'NONE', ( #81 ) ) ;
#231 = FACE_OUTER_BOUND ( 'NONE', #284, .T. ) ;
#232 = DATE_AND_TIME ( #303, #191 ) ;
#233 = EDGE_LOOP ( 'NONE', ( #18 ) ) ;
#234 = DIRECTION ( 'NONE',  ( 0.0000000000000000000, 1.000000000000000000, 0.0000000000000000000 ) ) ;
#235 =( GEOMETRIC_REPRESENTATION_CONTEXT ( 3 ) GLOBAL_UNCERTAINTY_ASSIGNED_CONTEXT ( ( #143 ) ) GLOBAL_UNIT_ASSIGNED_CONTEXT ( ( #12, #299, #194 ) ) REPRESENTATION_CONTEXT ( 'NONE', 'WORKASPACE' ) );
#236 = AXIS2_PLACEMENT_3D ( 'NONE', #56, #99, #246 ) ;
#237 = PLANE ( 'NONE',  #96 ) ;
#238 = PRODUCT_DEFINITION_FORMATION_WITH_SPECIFIED_SOURCE ( 'ANY', '', #189, .NOT_KNOWN. ) ;
#239 = AXIS2_PLACEMENT_3D ( 'NONE', #161, #130, #234 ) ;
#240 = EDGE_LOOP ( 'NONE', ( #77 ) ) ;
#241 = LOCAL_TIME ( 8, 16, 27.00000000000000000, #274 ) ;
#242 = CIRCLE ( 'NONE', #239, 1.399999999999999911 ) ;
#243 = MANIFOLD_SOLID_BREP ( 'Corps-Déplacer/Copier1[1]', #204 ) ;
#244 = APPROVAL ( #57, 'UNSPECIFIED' ) ;
#245 = APPLICATION_PROTOCOL_DEFINITION ( 'international standard', 'config_control_design', 1994, #5 ) ;
#246 = DIRECTION ( 'NONE',  ( 0.0000000000000000000, 1.000000000000000000, 0.0000000000000000000 ) ) ;
#247 = CARTESIAN_POINT ( 'NONE',  ( 8.728703347107833388E-14, 1.199999999999997069, 25.00000000000000000 ) ) ;
#248 = DIRECTION ( 'NONE',  ( 0.0000000000000000000, 1.000000000000000000, 0.0000000000000000000 ) ) ;
#249 = AXIS2_PLACEMENT_3D ( 'NONE', #8, #216, #71 ) ;
#250 = CARTESIAN_POINT ( 'NONE',  ( 3.491481338843133355E-14, -1.224646799147353454E-15, 10.00000000000000000 ) ) ;
#251 = CARTESIAN_POINT ( 'NONE',  ( 8.728703347107833388E-16, 1.399999999999998579, 0.2500000000000000000 ) ) ;
#252 = EDGE_LOOP ( 'NONE', ( #94 ) ) ;
#253 = CARTESIAN_POINT ( 'NONE',  ( 8.849961221477469775E-14, 1.230384493975576365, 25.34729635533384595 ) ) ;
#254 = APPROVAL_DATE_TIME ( #232, #29 ) ;
#255 = ORIENTED_EDGE ( 'NONE', *, *, #116, .T. ) ;
#256 = DIRECTION ( 'NONE',  ( -4.275831445896959482E-31, -1.000000000000000000, -1.224646799147353454E-16 ) ) ;
#257 = COORDINATED_UNIVERSAL_TIME_OFFSET ( 1, 0, .AHEAD. ) ;
#258 = AXIS2_PLACEMENT_3D ( 'NONE', #24, #84, #157 ) ;
#259 = EDGE_CURVE ( 'NONE', #98, #98, #53, .T. ) ;
#260 = DIRECTION ( 'NONE',  ( 0.0000000000000000000, 1.000000000000000000, 0.0000000000000000000 ) ) ;
#261 = DATE_AND_TIME ( #212, #222 ) ;
#262 = ORIENTED_EDGE ( 'NONE', *, *, #213, .T. ) ;
#263 = DIRECTION ( 'NONE',  ( 0.0000000000000000000, 1.000000000000000000, 0.0000000000000000000 ) ) ;
#264 = APPROVAL_DATE_TIME ( #147, #244 ) ;
#265 = FACE_OUTER_BOUND ( 'NONE', #37, .T. ) ;
#266 = PERSON_AND_ORGANIZATION ( #68, #131 ) ;
#267 = CIRCLE ( 'NONE', #236, 1.200000000000000178 ) ;
#268 = CC_DESIGN_DATE_AND_TIME_ASSIGNMENT ( #124, #180, ( #114 ) ) ;
#269 = EDGE_LOOP ( 'NONE', ( #160 ) ) ;
#270 = DIRECTION ( 'NONE',  ( -4.126992737972652260E-31, -1.000000000000000000, -1.161645184805898735E-16 ) ) ;
#271 = ADVANCED_FACE ( 'NONE', ( #197, #171 ), #150, .T. ) ;
#272 = AXIS2_PLACEMENT_3D ( 'NONE', #291, #115, #270 ) ;
#273 = CARTESIAN_POINT ( 'NONE',  ( 0.0000000000000000000, 0.0000000000000000000, 0.0000000000000000000 ) ) ;
#274 = COORDINATED_UNIVERSAL_TIME_OFFSET ( 1, 0, .AHEAD. ) ;
#275 = CARTESIAN_POINT ( 'NONE',  ( 2.653737142751137073E-31, -9.308056902648207440E-33, 7.600605259515508679E-17 ) ) ;
#276 = ORIENTED_EDGE ( 'NONE', *, *, #196, .F. ) ;
#277 = DIRECTION ( 'NONE',  ( 4.275831445896960358E-31, 1.000000000000000000, 1.224646799147353454E-16 ) ) ;
#278 = PERSON_AND_ORGANIZATION ( #68, #131 ) ;
#279 = EDGE_LOOP ( 'NONE', ( #276 ) ) ;
#280 = DIRECTION ( 'NONE',  ( 3.491481338843133355E-15, -1.224646799147353454E-16, 1.000000000000000000 ) ) ;
#281 = APPROVAL_STATUS ( 'not_yet_approved' ) ;
#282 = ADVANCED_FACE ( 'NONE', ( #119, #15 ), #69, .T. ) ;
#283 = FACE_OUTER_BOUND ( 'NONE', #301, .T. ) ;
#284 = EDGE_LOOP ( 'NONE', ( #20 ) ) ;
#285 = DIRECTION ( 'NONE',  ( -3.491481338843133355E-15, 1.224646799147353454E-16, -1.000000000000000000 ) ) ;
#286 = PERSON_AND_ORGANIZATION ( #68, #131 ) ;
#287 = FACE_OUTER_BOUND ( 'NONE', #23, .T. ) ;
#288 = AXIS2_PLACEMENT_3D ( 'NONE', #273, #203, #178 ) ;
#289 = AXIS2_PLACEMENT_3D ( 'NONE', #226, #153, #36 ) ;
#290 = CARTESIAN_POINT ( 'NONE',  ( 0.0000000000000000000, 0.0000000000000000000, 0.0000000000000000000 ) ) ;
#291 = CARTESIAN_POINT ( 'NONE',  ( 8.728703347107827472E-16, -3.061616997868381785E-17, 0.2499999999999998335 ) ) ;
#292 = ADVANCED_FACE ( 'NONE', ( #166, #89 ), #141, .T. ) ;
#293 = APPROVAL_PERSON_ORGANIZATION ( #286, #209, #109 ) ;
#294 = AXIS2_PLACEMENT_3D ( 'NONE', #250, #50, #19 ) ;
#295 = AXIS2_PLACEMENT_3D ( 'NONE', #300, #75, #21 ) ;
#296 = PERSON_AND_ORGANIZATION ( #68, #131 ) ;
#297 = CARTESIAN_POINT ( 'NONE',  ( 8.728703347107827472E-16, -3.061616997868381785E-17, 0.2499999999999998335 ) ) ;
#298 = PLANE ( 'NONE',  #295 ) ;
#299 =( NAMED_UNIT ( * ) PLANE_ANGLE_UNIT ( ) SI_UNIT ( $, .RADIAN. ) );
#300 = CARTESIAN_POINT ( 'NONE',  ( 3.491481338843133355E-14, 1.049831847863298683E-32, 10.00000000000000000 ) ) ;
#301 = EDGE_LOOP ( 'NONE', ( #91 ) ) ;
#302 = DIRECTION ( 'NONE',  ( -3.491481338843133355E-15, 1.224646799147353454E-16, -1.000000000000000000 ) ) ;
#303 = CALENDAR_DATE ( 2021, 2, 12 ) ;
ENDSEC;
END-ISO-10303-21;
