ISO-10303-21;
HEADER;
FILE_DESCRIPTION (( 'STEP AP203' ),
    '1' );
FILE_NAME ('200704.step',
    '2021-12-01T14:03:36',
    ( '' ),
    ( '' ),
    'SwSTEP 2.0',
    'SolidWorks 2019',
    '' );
FILE_SCHEMA (( 'CONFIG_CONTROL_DESIGN' ));
ENDSEC;

DATA;
#1 = CARTESIAN_POINT ( 'NONE',  ( 2.793185071074506684E-14, 0.9449999999999988409, 8.000000000000000000 ) ) ;
#2 = DIRECTION ( 'NONE',  ( -3.491481338843133355E-15, 1.224646799147353207E-16, -1.000000000000000000 ) ) ;
#3 = DIRECTION ( 'NONE',  ( 3.491481338843133355E-15, -1.224646799147353207E-16, 1.000000000000000000 ) ) ;
#4 = CARTESIAN_POINT ( 'NONE',  ( 7.293588222199368758E-14, -2.558246372748720319E-15, 20.88966691890160376 ) ) ;
#5 = DIRECTION ( 'NONE',  ( -3.491481338843133355E-15, 1.224646799147353207E-16, -1.000000000000000000 ) ) ;
#6 = SECURITY_CLASSIFICATION_LEVEL ( 'unclassified' ) ;
#7 = CONICAL_SURFACE ( 'NONE', #279, 1.200000000000001732, 0.7853981633974453924 ) ;
#8 = ADVANCED_FACE ( 'NONE', ( #119 ), #209, .F. ) ;
#9 = COORDINATED_UNIVERSAL_TIME_OFFSET ( 1, 0, .AHEAD. ) ;
#10 = DATE_AND_TIME ( #247, #60 ) ;
#11 = CIRCLE ( 'NONE', #294, 0.9449999999999997291 ) ;
#12 = DIRECTION ( 'NONE',  ( 0.0000000000000000000, 1.000000000000000000, 0.0000000000000000000 ) ) ;
#13 = MANIFOLD_SOLID_BREP ( 'Corps-Déplacer/Copier1[2]', #164 ) ;
#14 = MANIFOLD_SOLID_BREP ( 'Corps-Déplacer/Copier1[1]', #109 ) ;
#15 = AXIS2_PLACEMENT_3D ( 'NONE', #281, #234, #63 ) ;
#16 = ADVANCED_FACE ( 'NONE', ( #241, #212 ), #217, .T. ) ;
#17 = CARTESIAN_POINT ( 'NONE',  ( 2.853659301800060557E-14, -1.000928944092382267E-15, 8.173205080756900998 ) ) ;
#18 = FACE_OUTER_BOUND ( 'NONE', #224, .T. ) ;
#19 = PERSON_AND_ORGANIZATION_ROLE ( 'design_owner' ) ;
#20 = EDGE_LOOP ( 'NONE', ( #202 ) ) ;
#21 = DIRECTION ( 'NONE',  ( -3.491481338843133355E-15, 1.224646799147353207E-16, -1.000000000000000000 ) ) ;
#22 = CARTESIAN_POINT ( 'NONE',  ( 1.745740669421566678E-13, 1.199999999999995515, 50.00000000000000000 ) ) ;
#23 = ORIENTED_EDGE ( 'NONE', *, *, #249, .T. ) ;
#24 = EDGE_LOOP ( 'NONE', ( #46 ) ) ;
#25 = CC_DESIGN_APPROVAL ( #277, ( #232 ) ) ;
#26 = UNCERTAINTY_MEASURE_WITH_UNIT (LENGTH_MEASURE( 1.000000000000000082E-05 ), #161, 'distance_accuracy_value', 'NONE');
#27 = DIRECTION ( 'NONE',  ( 4.275831445896958607E-31, 1.000000000000000000, 1.224646799147353454E-16 ) ) ;
#28 = DIRECTION ( 'NONE',  ( 0.0000000000000000000, 0.0000000000000000000, 1.000000000000000000 ) ) ;
#29 = ORIENTED_EDGE ( 'NONE', *, *, #141, .T. ) ;
#30 = EDGE_CURVE ( 'NONE', #114, #114, #251, .T. ) ;
#31 = DIRECTION ( 'NONE',  ( -3.491481338843133355E-15, 1.224646799147353207E-16, -1.000000000000000000 ) ) ;
#32 = CALENDAR_DATE ( 2021, 1, 12 ) ;
#33 = DATE_AND_TIME ( #293, #258 ) ;
#34 = FACE_OUTER_BOUND ( 'NONE', #180, .T. ) ;
#35 = ADVANCED_FACE ( 'NONE', ( #220 ), #266, .T. ) ;
#36 = AXIS2_PLACEMENT_3D ( 'NONE', #252, #226, #12 ) ;
#37 = AXIS2_PLACEMENT_3D ( 'NONE', #100, #243, #55 ) ;
#38 = DIRECTION ( 'NONE',  ( 3.491481338843133355E-15, -1.224646799147353207E-16, 1.000000000000000000 ) ) ;
#39 = ADVANCED_FACE ( 'NONE', ( #271 ), #111, .F. ) ;
#40 = EDGE_LOOP ( 'NONE', ( #199 ) ) ;
#41 = CONICAL_SURFACE ( 'NONE', #153, 1.499999999999996669, 0.1745329251994260922 ) ;
#42 = FACE_OUTER_BOUND ( 'NONE', #274, .T. ) ;
#43 = DIRECTION ( 'NONE',  ( -3.491481338843133355E-15, 1.224646799147353207E-16, -1.000000000000000000 ) ) ;
#44 = COORDINATED_UNIVERSAL_TIME_OFFSET ( 1, 0, .AHEAD. ) ;
#45 = ORIENTED_EDGE ( 'NONE', *, *, #216, .T. ) ;
#46 = ORIENTED_EDGE ( 'NONE', *, *, #128, .F. ) ;
#47 = SECURITY_CLASSIFICATION ( '', '', #6 ) ;
#48 = APPLICATION_CONTEXT ( 'configuration controlled 3d designs of mechanical parts and assemblies' ) ;
#49 = ADVANCED_FACE ( 'NONE', ( #18, #85 ), #136, .T. ) ;
#50 = DIRECTION ( 'NONE',  ( 3.491481338843133355E-15, -1.224646799147353207E-16, 1.000000000000000000 ) ) ;
#51 = ORIENTED_EDGE ( 'NONE', *, *, #249, .F. ) ;
#52 = DIRECTION ( 'NONE',  ( 4.275831445896958607E-31, 1.000000000000000000, 1.224646799147353207E-16 ) ) ;
#53 = ORGANIZATION ( 'UNSPECIFIED', 'UNSPECIFIED', '' ) ;
#54 = COORDINATED_UNIVERSAL_TIME_OFFSET ( 1, 0, .AHEAD. ) ;
#55 = DIRECTION ( 'NONE',  ( -4.076042210343361673E-31, -1.000000000000000000, -1.147303886228048532E-16 ) ) ;
#56 = APPROVAL_DATE_TIME ( #106, #277 ) ;
#57 = DIRECTION ( 'NONE',  ( 0.0000000000000000000, 1.000000000000000000, 0.0000000000000000000 ) ) ;
#58 = EDGE_CURVE ( 'NONE', #183, #183, #66, .T. ) ;
#59 = DATE_TIME_ROLE ( 'classification_date' ) ;
#60 = LOCAL_TIME ( 15, 3, 36.00000000000000000, #9 ) ;
#61 = APPROVAL ( #167, 'UNSPECIFIED' ) ;
#62 = CIRCLE ( 'NONE', #65, 1.499999999999996669 ) ;
#63 = DIRECTION ( 'NONE',  ( 0.0000000000000000000, 1.000000000000000000, 0.0000000000000000000 ) ) ;
#64 = VERTEX_POINT ( 'NONE', #70 ) ;
#65 = AXIS2_PLACEMENT_3D ( 'NONE', #4, #31, #123 ) ;
#66 = CIRCLE ( 'NONE', #36, 0.9449999999999997291 ) ;
#67 = DIRECTION ( 'NONE',  ( 0.0000000000000000000, 1.000000000000000000, 0.0000000000000000000 ) ) ;
#68 = APPROVAL_STATUS ( 'not_yet_approved' ) ;
#69 = CARTESIAN_POINT ( 'NONE',  ( 8.728703347107835360E-16, 0.9449999999999988409, 0.2500000000000000555 ) ) ;
#70 = CARTESIAN_POINT ( 'NONE',  ( 6.056776150402961829E-14, 0.8753844939755726084, 17.34729635533384240 ) ) ;
#71 = EDGE_LOOP ( 'NONE', ( #263 ) ) ;
#72 = ADVANCED_FACE ( 'NONE', ( #273, #127 ), #288, .F. ) ;
#73 = CYLINDRICAL_SURFACE ( 'NONE', #168, 1.499999999999999112 ) ;
#74 = CALENDAR_DATE ( 2021, 1, 12 ) ;
#75 = CIRCLE ( 'NONE', #196, 0.8449999999999934230 ) ;
#76 = DIRECTION ( 'NONE',  ( -3.491481338843133355E-15, 1.224646799147353207E-16, -1.000000000000000000 ) ) ;
#77 = PERSON_AND_ORGANIZATION ( #194, #53 ) ;
#78 = FACE_OUTER_BOUND ( 'NONE', #40, .T. ) ;
#79 = COORDINATED_UNIVERSAL_TIME_OFFSET ( 1, 0, .AHEAD. ) ;
#80 = ORIENTED_EDGE ( 'NONE', *, *, #259, .T. ) ;
#81 = APPROVAL_PERSON_ORGANIZATION ( #77, #134, #268 ) ;
#82 = CC_DESIGN_PERSON_AND_ORGANIZATION_ASSIGNMENT ( #125, #214, ( #104 ) ) ;
#83 = APPLICATION_CONTEXT ( 'configuration controlled 3d designs of mechanical parts and assemblies' ) ;
#84 = AXIS2_PLACEMENT_3D ( 'NONE', #276, #38, #198 ) ;
#85 = FACE_OUTER_BOUND ( 'NONE', #98, .T. ) ;
#86 = ORIENTED_EDGE ( 'NONE', *, *, #259, .F. ) ;
#87 = FACE_BOUND ( 'NONE', #284, .T. ) ;
#88 = EDGE_LOOP ( 'NONE', ( #208 ) ) ;
#89 = VERTEX_POINT ( 'NONE', #260 ) ;
#90 = LOCAL_TIME ( 15, 3, 36.00000000000000000, #54 ) ;
#91 = EDGE_LOOP ( 'NONE', ( #80 ) ) ;
#92 = CARTESIAN_POINT ( 'NONE',  ( 6.056776150402961829E-14, -2.124431095542013598E-15, 17.34729635533384240 ) ) ;
#93 =( NAMED_UNIT ( * ) PLANE_ANGLE_UNIT ( ) SI_UNIT ( $, .RADIAN. ) );
#94 = EDGE_LOOP ( 'NONE', ( #204 ) ) ;
#95 = DIRECTION ( 'NONE',  ( 4.076042210343361673E-31, 1.000000000000000000, 1.147303886228048532E-16 ) ) ;
#96 = VERTEX_POINT ( 'NONE', #200 ) ;
#97 = DIRECTION ( 'NONE',  ( -3.491481338843133355E-15, 1.224646799147353207E-16, -1.000000000000000000 ) ) ;
#98 = EDGE_LOOP ( 'NONE', ( #238 ) ) ;
#99 = MECHANICAL_CONTEXT ( 'NONE', #48, 'mechanical' ) ;
#100 = CARTESIAN_POINT ( 'NONE',  ( 8.728703347107831416E-16, -3.061616997868382402E-17, 0.2499999999999999445 ) ) ;
#101 = EDGE_LOOP ( 'NONE', ( #51 ) ) ;
#102 = DIRECTION ( 'NONE',  ( 0.0000000000000000000, 1.000000000000000000, 0.0000000000000000000 ) ) ;
#103 = CC_DESIGN_PERSON_AND_ORGANIZATION_ASSIGNMENT ( #230, #19, ( #145 ) ) ;
#104 = PRODUCT_DEFINITION_FORMATION_WITH_SPECIFIED_SOURCE ( 'ANY', '', #145, .NOT_KNOWN. ) ;
#105 = SHAPE_DEFINITION_REPRESENTATION ( #262, #195 ) ;
#106 = DATE_AND_TIME ( #219, #211 ) ;
#107 = ORIENTED_EDGE ( 'NONE', *, *, #177, .T. ) ;
#108 = AXIS2_PLACEMENT_3D ( 'NONE', #92, #215, #57 ) ;
#109 = CLOSED_SHELL ( 'NONE', ( #39, #292, #49, #72, #197, #297, #287, #239 ) ) ;
#110 = LOCAL_TIME ( 15, 3, 36.00000000000000000, #79 ) ;
#111 = PLANE ( 'NONE',  #84 ) ;
#112 = CC_DESIGN_PERSON_AND_ORGANIZATION_ASSIGNMENT ( #171, #170, ( #232 ) ) ;
#113 = CARTESIAN_POINT ( 'NONE',  ( 0.0000000000000000000, 0.0000000000000000000, 0.0000000000000000000 ) ) ;
#114 = VERTEX_POINT ( 'NONE', #162 ) ;
#115 = AXIS2_PLACEMENT_3D ( 'NONE', #267, #187, #218 ) ;
#116 = DIRECTION ( 'NONE',  ( 0.0000000000000000000, -1.000000000000000000, 0.0000000000000000000 ) ) ;
#117 = CARTESIAN_POINT ( 'NONE',  ( 7.293588222199368758E-14, 1.499999999999994005, 20.88966691890160376 ) ) ;
#118 = FACE_OUTER_BOUND ( 'NONE', #20, .T. ) ;
#119 = FACE_OUTER_BOUND ( 'NONE', #91, .T. ) ;
#120 = CARTESIAN_POINT ( 'NONE',  ( 1.735266225405037467E-13, -6.086494591762345225E-15, 49.70000000000000284 ) ) ;
#121 = DIRECTION ( 'NONE',  ( 1.000000000000000000, 0.0000000000000000000, 0.0000000000000000000 ) ) ;
#122 = CC_DESIGN_PERSON_AND_ORGANIZATION_ASSIGNMENT ( #193, #295, ( #104 ) ) ;
#123 = DIRECTION ( 'NONE',  ( 0.0000000000000000000, 1.000000000000000000, 0.0000000000000000000 ) ) ;
#124 = APPROVAL_STATUS ( 'not_yet_approved' ) ;
#125 = PERSON_AND_ORGANIZATION ( #194, #53 ) ;
#126 = APPROVAL_PERSON_ORGANIZATION ( #152, #61, #248 ) ;
#127 = FACE_OUTER_BOUND ( 'NONE', #229, .T. ) ;
#128 = EDGE_CURVE ( 'NONE', #289, #289, #190, .T. ) ;
#129 = ORIENTED_EDGE ( 'NONE', *, *, #221, .T. ) ;
#130 = DIRECTION ( 'NONE',  ( 0.0000000000000000000, 1.000000000000000000, 0.0000000000000000000 ) ) ;
#131 = CC_DESIGN_APPROVAL ( #134, ( #104 ) ) ;
#132 = AXIS2_PLACEMENT_3D ( 'NONE', #169, #5, #130 ) ;
#133 = DIRECTION ( 'NONE',  ( -4.275831445896958607E-31, -1.000000000000000000, -1.224646799147353207E-16 ) ) ;
#134 = APPROVAL ( #124, 'UNSPECIFIED' ) ;
#135 = CARTESIAN_POINT ( 'NONE',  ( 7.293588222199368758E-14, -2.558246372748720319E-15, 20.88966691890160376 ) ) ;
#136 = CYLINDRICAL_SURFACE ( 'NONE', #228, 0.8449999999999939782 ) ;
#137 = CARTESIAN_POINT ( 'NONE',  ( 0.0000000000000000000, 0.0000000000000000000, 0.0000000000000000000 ) ) ;
#138 = DIRECTION ( 'NONE',  ( 0.0000000000000000000, 1.000000000000000000, 0.0000000000000000000 ) ) ;
#139 = CIRCLE ( 'NONE', #156, 0.9449999999999988409 ) ;
#140 = EDGE_LOOP ( 'NONE', ( #86 ) ) ;
#141 = EDGE_CURVE ( 'NONE', #165, #165, #62, .T. ) ;
#142 = CARTESIAN_POINT ( 'NONE',  ( 2.793185071074506684E-14, 0.9449999999999988409, 8.000000000000000000 ) ) ;
#143 = PLANE ( 'NONE',  #272 ) ;
#144 = CARTESIAN_POINT ( 'NONE',  ( 2.853659301800060557E-14, -1.000928944092382267E-15, 8.173205080756900998 ) ) ;
#145 = PRODUCT ( '200704', '200704', '', ( #99 ) ) ;
#146 = DIRECTION ( 'NONE',  ( -4.275831445896958607E-31, -1.000000000000000000, -1.224646799147353207E-16 ) ) ;
#147 = DATE_AND_TIME ( #74, #110 ) ;
#148 =( GEOMETRIC_REPRESENTATION_CONTEXT ( 3 ) GLOBAL_UNCERTAINTY_ASSIGNED_CONTEXT ( ( #26 ) ) GLOBAL_UNIT_ASSIGNED_CONTEXT ( ( #161, #93, #303 ) ) REPRESENTATION_CONTEXT ( 'NONE', 'WORKASPACE' ) );
#149 = COORDINATED_UNIVERSAL_TIME_OFFSET ( 1, 0, .AHEAD. ) ;
#150 = DIRECTION ( 'NONE',  ( 3.491481338843133355E-15, -1.224646799147353207E-16, 1.000000000000000000 ) ) ;
#151 = AXIS2_PLACEMENT_3D ( 'NONE', #144, #2, #138 ) ;
#152 = PERSON_AND_ORGANIZATION ( #194, #53 ) ;
#153 = AXIS2_PLACEMENT_3D ( 'NONE', #135, #3, #116 ) ;
#154 = DIRECTION ( 'NONE',  ( -3.491481338843133355E-15, 1.224646799147353207E-16, -1.000000000000000000 ) ) ;
#155 = FACE_BOUND ( 'NONE', #101, .T. ) ;
#156 = AXIS2_PLACEMENT_3D ( 'NONE', #286, #21, #95 ) ;
#157 = FACE_OUTER_BOUND ( 'NONE', #88, .T. ) ;
#158 = APPROVAL_ROLE ( '' ) ;
#159 = CYLINDRICAL_SURFACE ( 'NONE', #301, 0.9449999999999991740 ) ;
#160 = FACE_OUTER_BOUND ( 'NONE', #261, .T. ) ;
#161 =( LENGTH_UNIT ( ) NAMED_UNIT ( * ) SI_UNIT ( .MILLI., .METRE. ) );
#162 = CARTESIAN_POINT ( 'NONE',  ( 5.935518276033326704E-14, 0.8449999999999924238, 17.00000000000000000 ) ) ;
#163 = CC_DESIGN_SECURITY_CLASSIFICATION ( #47, ( #104 ) ) ;
#164 = CLOSED_SHELL ( 'NONE', ( #8, #16, #186, #35 ) ) ;
#165 = VERTEX_POINT ( 'NONE', #117 ) ;
#166 = CC_DESIGN_PERSON_AND_ORGANIZATION_ASSIGNMENT ( #172, #291, ( #47 ) ) ;
#167 = APPROVAL_STATUS ( 'not_yet_approved' ) ;
#168 = AXIS2_PLACEMENT_3D ( 'NONE', #137, #207, #27 ) ;
#169 = CARTESIAN_POINT ( 'NONE',  ( 5.935518276033326704E-14, -2.081899558550500280E-15, 17.00000000000000000 ) ) ;
#170 = PERSON_AND_ORGANIZATION_ROLE ( 'creator' ) ;
#171 = PERSON_AND_ORGANIZATION ( #194, #53 ) ;
#172 = PERSON_AND_ORGANIZATION ( #194, #53 ) ;
#173 = AXIS2_PLACEMENT_3D ( 'NONE', #240, #28, #121 ) ;
#174 = EDGE_LOOP ( 'NONE', ( #45 ) ) ;
#175 = CC_DESIGN_DATE_AND_TIME_ASSIGNMENT ( #147, #269, ( #232 ) ) ;
#176 = AXIS2_PLACEMENT_3D ( 'NONE', #225, #222, #245 ) ;
#177 = EDGE_CURVE ( 'NONE', #233, #233, #11, .T. ) ;
#178 = CARTESIAN_POINT ( 'NONE',  ( -1.711748803649055239E-31, 6.004006580277786375E-33, -4.902643427033826740E-17 ) ) ;
#179 = APPLICATION_PROTOCOL_DEFINITION ( 'international standard', 'config_control_design', 1994, #83 ) ;
#180 = EDGE_LOOP ( 'NONE', ( #107 ) ) ;
#181 = DIRECTION ( 'NONE',  ( -3.491481338843133355E-15, 1.224646799147353207E-16, -1.000000000000000000 ) ) ;
#182 = CARTESIAN_POINT ( 'NONE',  ( 1.745740669421566678E-13, 8.998558695971067645E-33, 50.00000000000000000 ) ) ;
#183 = VERTEX_POINT ( 'NONE', #142 ) ;
#184 = APPROVAL_PERSON_ORGANIZATION ( #280, #277, #158 ) ;
#185 = ORIENTED_EDGE ( 'NONE', *, *, #192, .T. ) ;
#186 = ADVANCED_FACE ( 'NONE', ( #78, #34 ), #159, .T. ) ;
#187 = DIRECTION ( 'NONE',  ( -3.491481338843133355E-15, 1.224646799147353207E-16, -1.000000000000000000 ) ) ;
#188 = DATE_AND_TIME ( #32, #90 ) ;
#189 = DIRECTION ( 'NONE',  ( 0.0000000000000000000, 1.000000000000000000, 0.0000000000000000000 ) ) ;
#190 = CIRCLE ( 'NONE', #253, 1.500000000000001554 ) ;
#191 = APPROVAL_DATE_TIME ( #10, #134 ) ;
#192 = EDGE_CURVE ( 'NONE', #283, #283, #203, .T. ) ;
#193 = PERSON_AND_ORGANIZATION ( #194, #53 ) ;
#194 = PERSON ( 'UNSPECIFIED', 'UNSPECIFIED', 'UNSPECIFIED', ('UNSPECIFIED'), ('UNSPECIFIED'), ('UNSPECIFIED') ) ;
#195 = ADVANCED_BREP_SHAPE_REPRESENTATION ( '200704', ( #14, #13, #173 ), #148 ) ;
#196 = AXIS2_PLACEMENT_3D ( 'NONE', #17, #181, #67 ) ;
#197 = ADVANCED_FACE ( 'NONE', ( #155, #42 ), #41, .T. ) ;
#198 = DIRECTION ( 'NONE',  ( -4.275831445896958607E-31, -1.000000000000000000, -1.224646799147353207E-16 ) ) ;
#199 = ORIENTED_EDGE ( 'NONE', *, *, #221, .F. ) ;
#200 = CARTESIAN_POINT ( 'NONE',  ( 0.0000000000000000000, 0.8006624327025944066, 0.0000000000000000000 ) ) ;
#201 = DIRECTION ( 'NONE',  ( -3.491481338843133355E-15, 1.224646799147353207E-16, -1.000000000000000000 ) ) ;
#202 = ORIENTED_EDGE ( 'NONE', *, *, #128, .T. ) ;
#203 = CIRCLE ( 'NONE', #15, 1.200000000000001732 ) ;
#204 = ORIENTED_EDGE ( 'NONE', *, *, #141, .F. ) ;
#205 = DESIGN_CONTEXT ( 'detailed design', #83, 'design' ) ;
#206 = FACE_BOUND ( 'NONE', #174, .T. ) ;
#207 = DIRECTION ( 'NONE',  ( -3.491481338843133355E-15, 1.224646799147353207E-16, -1.000000000000000000 ) ) ;
#208 = ORIENTED_EDGE ( 'NONE', *, *, #58, .F. ) ;
#209 = PLANE ( 'NONE',  #264 ) ;
#210 = APPLICATION_PROTOCOL_DEFINITION ( 'international standard', 'config_control_design', 1994, #48 ) ;
#211 = LOCAL_TIME ( 15, 3, 36.00000000000000000, #44 ) ;
#212 = FACE_OUTER_BOUND ( 'NONE', #255, .T. ) ;
#213 = CARTESIAN_POINT ( 'NONE',  ( 2.793185071074506684E-14, -9.797174393178825657E-16, 8.000000000000000000 ) ) ;
#214 = PERSON_AND_ORGANIZATION_ROLE ( 'creator' ) ;
#215 = DIRECTION ( 'NONE',  ( -3.491481338843133355E-15, 1.224646799147353207E-16, -1.000000000000000000 ) ) ;
#216 = EDGE_CURVE ( 'NONE', #89, #89, #75, .T. ) ;
#217 = CONICAL_SURFACE ( 'NONE', #37, 0.9449999999999988409, 0.5235987755982925984 ) ;
#218 = DIRECTION ( 'NONE',  ( 4.275831445896958607E-31, 1.000000000000000000, 1.224646799147353207E-16 ) ) ;
#219 = CALENDAR_DATE ( 2021, 1, 12 ) ;
#220 = FACE_OUTER_BOUND ( 'NONE', #265, .T. ) ;
#221 = EDGE_CURVE ( 'NONE', #257, #257, #139, .T. ) ;
#222 = DIRECTION ( 'NONE',  ( -3.491481338843133355E-15, 1.224646799147353207E-16, -1.000000000000000000 ) ) ;
#223 = ORIENTED_EDGE ( 'NONE', *, *, #177, .F. ) ;
#224 = EDGE_LOOP ( 'NONE', ( #231 ) ) ;
#225 = CARTESIAN_POINT ( 'NONE',  ( -3.423497607298110478E-31, 1.200801316055557275E-32, -9.805286854067653480E-17 ) ) ;
#226 = DIRECTION ( 'NONE',  ( -3.491481338843133355E-15, 1.224646799147353207E-16, -1.000000000000000000 ) ) ;
#227 = CARTESIAN_POINT ( 'NONE',  ( 1.745740669421566678E-13, -6.123233995736766085E-15, 50.00000000000000000 ) ) ;
#228 = AXIS2_PLACEMENT_3D ( 'NONE', #113, #154, #298 ) ;
#229 = EDGE_LOOP ( 'NONE', ( #23 ) ) ;
#230 = PERSON_AND_ORGANIZATION ( #194, #53 ) ;
#231 = ORIENTED_EDGE ( 'NONE', *, *, #216, .F. ) ;
#232 = PRODUCT_DEFINITION ( 'UNKNOWN', '', #104, #205 ) ;
#233 = VERTEX_POINT ( 'NONE', #1 ) ;
#234 = DIRECTION ( 'NONE',  ( -3.491481338843133355E-15, 1.224646799147353207E-16, -1.000000000000000000 ) ) ;
#235 = EDGE_LOOP ( 'NONE', ( #282 ) ) ;
#236 = CONICAL_SURFACE ( 'NONE', #151, 0.8449999999999934230, 0.5235987755982947078 ) ;
#237 = FACE_OUTER_BOUND ( 'NONE', #94, .T. ) ;
#238 = ORIENTED_EDGE ( 'NONE', *, *, #30, .T. ) ;
#239 = ADVANCED_FACE ( 'NONE', ( #160 ), #143, .F. ) ;
#240 = CARTESIAN_POINT ( 'NONE',  ( 0.0000000000000000000, 0.0000000000000000000, 0.0000000000000000000 ) ) ;
#241 = FACE_BOUND ( 'NONE', #140, .T. ) ;
#242 = CIRCLE ( 'NONE', #108, 0.8753844939755747179 ) ;
#243 = DIRECTION ( 'NONE',  ( 3.491481338843133355E-15, -1.224646799147353207E-16, 1.000000000000000000 ) ) ;
#244 = PRODUCT_RELATED_PRODUCT_CATEGORY ( 'detail', '', ( #145 ) ) ;
#245 = DIRECTION ( 'NONE',  ( 4.275831445896958607E-31, 1.000000000000000000, 1.224646799147353207E-16 ) ) ;
#246 = APPROVAL_DATE_TIME ( #188, #61 ) ;
#247 = CALENDAR_DATE ( 2021, 1, 12 ) ;
#248 = APPROVAL_ROLE ( '' ) ;
#249 = EDGE_CURVE ( 'NONE', #64, #64, #242, .T. ) ;
#250 = CIRCLE ( 'NONE', #176, 0.8006624327025944066 ) ;
#251 = CIRCLE ( 'NONE', #132, 0.8449999999999945333 ) ;
#252 = CARTESIAN_POINT ( 'NONE',  ( 2.793185071074506684E-14, -9.797174393178825657E-16, 8.000000000000000000 ) ) ;
#253 = AXIS2_PLACEMENT_3D ( 'NONE', #120, #290, #102 ) ;
#254 = CARTESIAN_POINT ( 'NONE',  ( 1.735266225405037467E-13, 1.499999999999995559, 49.70000000000000284 ) ) ;
#255 = EDGE_LOOP ( 'NONE', ( #129 ) ) ;
#256 = FACE_OUTER_BOUND ( 'NONE', #24, .T. ) ;
#257 = VERTEX_POINT ( 'NONE', #69 ) ;
#258 = LOCAL_TIME ( 15, 3, 36.00000000000000000, #149 ) ;
#259 = EDGE_CURVE ( 'NONE', #96, #96, #250, .T. ) ;
#260 = CARTESIAN_POINT ( 'NONE',  ( 2.853659301800060557E-14, 0.8449999999999924238, 8.173205080756900998 ) ) ;
#261 = EDGE_LOOP ( 'NONE', ( #300 ) ) ;
#262 = PRODUCT_DEFINITION_SHAPE ( 'NONE', 'NONE',  #232 ) ;
#263 = ORIENTED_EDGE ( 'NONE', *, *, #58, .T. ) ;
#264 = AXIS2_PLACEMENT_3D ( 'NONE', #178, #50, #146 ) ;
#265 = EDGE_LOOP ( 'NONE', ( #223 ) ) ;
#266 = PLANE ( 'NONE',  #302 ) ;
#267 = CARTESIAN_POINT ( 'NONE',  ( 5.935518276033326704E-14, -2.168404344971008868E-15, 17.00000000000000000 ) ) ;
#268 = APPROVAL_ROLE ( '' ) ;
#269 = DATE_TIME_ROLE ( 'creation_date' ) ;
#270 = CC_DESIGN_DATE_AND_TIME_ASSIGNMENT ( #33, #59, ( #47 ) ) ;
#271 = FACE_OUTER_BOUND ( 'NONE', #71, .T. ) ;
#272 = AXIS2_PLACEMENT_3D ( 'NONE', #182, #43, #52 ) ;
#273 = FACE_OUTER_BOUND ( 'NONE', #235, .T. ) ;
#274 = EDGE_LOOP ( 'NONE', ( #29 ) ) ;
#275 = CARTESIAN_POINT ( 'NONE',  ( 0.0000000000000000000, 0.0000000000000000000, 0.0000000000000000000 ) ) ;
#276 = CARTESIAN_POINT ( 'NONE',  ( 2.793185071074506684E-14, 7.086364973077260502E-33, 8.000000000000000000 ) ) ;
#277 = APPROVAL ( #68, 'UNSPECIFIED' ) ;
#278 = DIRECTION ( 'NONE',  ( 4.275831445896959482E-31, 1.000000000000000000, 1.224646799147353207E-16 ) ) ;
#279 = AXIS2_PLACEMENT_3D ( 'NONE', #227, #97, #285 ) ;
#280 = PERSON_AND_ORGANIZATION ( #194, #53 ) ;
#281 = CARTESIAN_POINT ( 'NONE',  ( 1.745740669421566678E-13, -6.123233995736766085E-15, 50.00000000000000000 ) ) ;
#282 = ORIENTED_EDGE ( 'NONE', *, *, #30, .F. ) ;
#283 = VERTEX_POINT ( 'NONE', #22 ) ;
#284 = EDGE_LOOP ( 'NONE', ( #185 ) ) ;
#285 = DIRECTION ( 'NONE',  ( 0.0000000000000000000, 1.000000000000000000, 0.0000000000000000000 ) ) ;
#286 = CARTESIAN_POINT ( 'NONE',  ( 8.728703347107831416E-16, -3.061616997868382402E-17, 0.2499999999999999445 ) ) ;
#287 = ADVANCED_FACE ( 'NONE', ( #256, #87 ), #7, .T. ) ;
#288 = TOROIDAL_SURFACE ( 'NONE', #115, 2.844999999999994866, 2.000000000000000000 ) ;
#289 = VERTEX_POINT ( 'NONE', #254 ) ;
#290 = DIRECTION ( 'NONE',  ( -3.491481338843133355E-15, 1.224646799147353207E-16, -1.000000000000000000 ) ) ;
#291 = PERSON_AND_ORGANIZATION_ROLE ( 'classification_officer' ) ;
#292 = ADVANCED_FACE ( 'NONE', ( #157, #206 ), #236, .T. ) ;
#293 = CALENDAR_DATE ( 2021, 1, 12 ) ;
#294 = AXIS2_PLACEMENT_3D ( 'NONE', #213, #76, #189 ) ;
#295 = PERSON_AND_ORGANIZATION_ROLE ( 'design_supplier' ) ;
#296 = CARTESIAN_POINT ( 'NONE',  ( 2.793185071074506684E-14, 7.086364973077260502E-33, 8.000000000000000000 ) ) ;
#297 = ADVANCED_FACE ( 'NONE', ( #237, #118 ), #73, .T. ) ;
#298 = DIRECTION ( 'NONE',  ( 4.275831445896958607E-31, 1.000000000000000000, 1.224646799147353207E-16 ) ) ;
#299 = CC_DESIGN_APPROVAL ( #61, ( #47 ) ) ;
#300 = ORIENTED_EDGE ( 'NONE', *, *, #192, .F. ) ;
#301 = AXIS2_PLACEMENT_3D ( 'NONE', #275, #201, #278 ) ;
#302 = AXIS2_PLACEMENT_3D ( 'NONE', #296, #150, #133 ) ;
#303 =( NAMED_UNIT ( * ) SI_UNIT ( $, .STERADIAN. ) SOLID_ANGLE_UNIT ( ) );
ENDSEC;
END-ISO-10303-21;
