ISO-10303-21;
HEADER;
FILE_DESCRIPTION (( 'STEP AP203' ),
    '1' );
FILE_NAME ('200703.step',
    '2021-12-02T07:11:30',
    ( '' ),
    ( '' ),
    'SwSTEP 2.0',
    'SolidWorks 2019',
    '' );
FILE_SCHEMA (( 'CONFIG_CONTROL_DESIGN' ));
ENDSEC;

DATA;
#1 = DIRECTION ( 'NONE',  ( -3.491481338843133355E-15, 1.224646799147353454E-16, -1.000000000000000000 ) ) ;
#2 = CC_DESIGN_PERSON_AND_ORGANIZATION_ASSIGNMENT ( #257, #8, ( #131 ) ) ;
#3 = FACE_OUTER_BOUND ( 'NONE', #36, .T. ) ;
#4 = CARTESIAN_POINT ( 'NONE',  ( 2.129803616694311221E-13, 1.199999999999995515, 61.00000000000000000 ) ) ;
#5 =( NAMED_UNIT ( * ) PLANE_ANGLE_UNIT ( ) SI_UNIT ( $, .RADIAN. ) );
#6 = AXIS2_PLACEMENT_3D ( 'NONE', #232, #183, #187 ) ;
#7 = PERSON_AND_ORGANIZATION_ROLE ( 'design_owner' ) ;
#8 = PERSON_AND_ORGANIZATION_ROLE ( 'design_supplier' ) ;
#9 = ORIENTED_EDGE ( 'NONE', *, *, #92, .F. ) ;
#10 = ORIENTED_EDGE ( 'NONE', *, *, #229, .T. ) ;
#11 = AXIS2_PLACEMENT_3D ( 'NONE', #86, #14, #224 ) ;
#12 = EDGE_LOOP ( 'NONE', ( #101 ) ) ;
#13 = DATE_AND_TIME ( #268, #231 ) ;
#14 = DIRECTION ( 'NONE',  ( -3.491481338843133355E-15, 1.224646799147353454E-16, -1.000000000000000000 ) ) ;
#15 = FACE_OUTER_BOUND ( 'NONE', #296, .T. ) ;
#16 = CLOSED_SHELL ( 'NONE', ( #149, #169, #20, #211 ) ) ;
#17 = APPROVAL_PERSON_ORGANIZATION ( #60, #192, #135 ) ;
#18 = DIRECTION ( 'NONE',  ( 3.491481338843133355E-15, -1.224646799147353454E-16, 1.000000000000000000 ) ) ;
#19 = DIRECTION ( 'NONE',  ( -3.491481338843133355E-15, 1.224646799147353454E-16, -1.000000000000000000 ) ) ;
#20 = ADVANCED_FACE ( 'NONE', ( #242, #138 ), #113, .T. ) ;
#21 = PRODUCT ( '200703', '200703', '', ( #76 ) ) ;
#22 = DIRECTION ( 'NONE',  ( 3.491481338843133355E-15, -1.224646799147353454E-16, 1.000000000000000000 ) ) ;
#23 = CARTESIAN_POINT ( 'NONE',  ( 3.491481338843133355E-14, -1.224646799147353454E-15, 10.00000000000000000 ) ) ;
#24 = APPROVAL ( #259, 'UNSPECIFIED' ) ;
#25 = PLANE ( 'NONE',  #114 ) ;
#26 = CARTESIAN_POINT ( 'NONE',  ( 8.728703347107829444E-16, -3.061616997868382402E-17, 0.2499999999999998890 ) ) ;
#27 = FACE_OUTER_BOUND ( 'NONE', #254, .T. ) ;
#28 = APPLICATION_CONTEXT ( 'configuration controlled 3d designs of mechanical parts and assemblies' ) ;
#29 = EDGE_LOOP ( 'NONE', ( #150 ) ) ;
#30 = ADVANCED_FACE ( 'NONE', ( #289, #108 ), #155, .F. ) ;
#31 = AXIS2_PLACEMENT_3D ( 'NONE', #40, #154, #241 ) ;
#32 = PERSON_AND_ORGANIZATION ( #85, #118 ) ;
#33 = EDGE_CURVE ( 'NONE', #116, #116, #93, .T. ) ;
#34 = APPROVAL_ROLE ( '' ) ;
#35 = CARTESIAN_POINT ( 'NONE',  ( 3.491481338843133355E-14, 1.001089654926788503E-32, 10.00000000000000000 ) ) ;
#36 = EDGE_LOOP ( 'NONE', ( #129 ) ) ;
#37 = DIRECTION ( 'NONE',  ( -4.275831445896959482E-31, -1.000000000000000000, -1.224646799147353454E-16 ) ) ;
#38 = AXIS2_PLACEMENT_3D ( 'NONE', #246, #302, #143 ) ;
#39 = EDGE_LOOP ( 'NONE', ( #9 ) ) ;
#40 = CARTESIAN_POINT ( 'NONE',  ( 3.491481338843133355E-14, -1.224646799147353454E-15, 10.00000000000000000 ) ) ;
#41 = EDGE_CURVE ( 'NONE', #205, #205, #130, .T. ) ;
#42 = DIRECTION ( 'NONE',  ( 3.491481338843133355E-15, -1.224646799147353454E-16, 1.000000000000000000 ) ) ;
#43 = PLANE ( 'NONE',  #6 ) ;
#44 = AXIS2_PLACEMENT_3D ( 'NONE', #71, #161, #117 ) ;
#45 = APPROVAL_PERSON_ORGANIZATION ( #152, #127, #34 ) ;
#46 = CARTESIAN_POINT ( 'NONE',  ( 8.849961221477469775E-14, 1.155384493975578408, 25.34729635533384595 ) ) ;
#47 = VERTEX_POINT ( 'NONE', #145 ) ;
#48 = DIRECTION ( 'NONE',  ( 0.0000000000000000000, 1.000000000000000000, 0.0000000000000000000 ) ) ;
#49 = AXIS2_PLACEMENT_3D ( 'NONE', #276, #271, #72 ) ;
#50 = DATE_AND_TIME ( #151, #156 ) ;
#51 = EDGE_LOOP ( 'NONE', ( #64 ) ) ;
#52 = PERSON_AND_ORGANIZATION_ROLE ( 'creator' ) ;
#53 =( GEOMETRIC_REPRESENTATION_CONTEXT ( 3 ) GLOBAL_UNCERTAINTY_ASSIGNED_CONTEXT ( ( #184 ) ) GLOBAL_UNIT_ASSIGNED_CONTEXT ( ( #104, #5, #193 ) ) REPRESENTATION_CONTEXT ( 'NONE', 'WORKASPACE' ) );
#54 = CC_DESIGN_APPROVAL ( #192, ( #70 ) ) ;
#55 = MANIFOLD_SOLID_BREP ( 'Corps-Déplacer/Copier1[1]', #158 ) ;
#56 = ORIENTED_EDGE ( 'NONE', *, *, #233, .F. ) ;
#57 = ORIENTED_EDGE ( 'NONE', *, *, #218, .F. ) ;
#58 = CARTESIAN_POINT ( 'NONE',  ( 3.618477223366789168E-14, -1.269190959173800578E-15, 10.36373066958947220 ) ) ;
#59 = AXIS2_PLACEMENT_3D ( 'NONE', #178, #22, #227 ) ;
#60 = PERSON_AND_ORGANIZATION ( #85, #118 ) ;
#61 = CARTESIAN_POINT ( 'NONE',  ( 0.0000000000000000000, 0.0000000000000000000, 0.0000000000000000000 ) ) ;
#62 = ADVANCED_FACE ( 'NONE', ( #88, #134 ), #69, .T. ) ;
#63 = FACE_OUTER_BOUND ( 'NONE', #51, .T. ) ;
#64 = ORIENTED_EDGE ( 'NONE', *, *, #244, .T. ) ;
#65 = FACE_OUTER_BOUND ( 'NONE', #153, .T. ) ;
#66 = FACE_OUTER_BOUND ( 'NONE', #288, .T. ) ;
#67 = CARTESIAN_POINT ( 'NONE',  ( 8.849961221477469775E-14, -3.104148534859897544E-15, 25.34729635533384595 ) ) ;
#68 = VERTEX_POINT ( 'NONE', #163 ) ;
#69 = CONICAL_SURFACE ( 'NONE', #195, 1.200000000000002842, 0.7853981633974453924 ) ;
#70 = SECURITY_CLASSIFICATION ( '', '', #283 ) ;
#71 = CARTESIAN_POINT ( 'NONE',  ( 2.129803616694311221E-13, -7.470345474798856659E-15, 61.00000000000000000 ) ) ;
#72 = DIRECTION ( 'NONE',  ( 0.0000000000000000000, 1.000000000000000000, 0.0000000000000000000 ) ) ;
#73 = ADVANCED_FACE ( 'NONE', ( #219 ), #84, .F. ) ;
#74 = APPROVAL_ROLE ( '' ) ;
#75 = CIRCLE ( 'NONE', #49, 1.499999999999996003 ) ;
#76 = MECHANICAL_CONTEXT ( 'NONE', #279, 'mechanical' ) ;
#77 = ORIENTED_EDGE ( 'NONE', *, *, #244, .F. ) ;
#78 = CC_DESIGN_DATE_AND_TIME_ASSIGNMENT ( #215, #282, ( #293 ) ) ;
#79 = APPROVAL_DATE_TIME ( #210, #127 ) ;
#80 = EDGE_LOOP ( 'NONE', ( #198 ) ) ;
#81 = CC_DESIGN_DATE_AND_TIME_ASSIGNMENT ( #132, #239, ( #70 ) ) ;
#82 = ORIENTED_EDGE ( 'NONE', *, *, #33, .T. ) ;
#83 = CARTESIAN_POINT ( 'NONE',  ( 8.728703347107833388E-14, -3.035766082959412415E-15, 25.00000000000000000 ) ) ;
#84 = PLANE ( 'NONE',  #99 ) ;
#85 = PERSON ( 'UNSPECIFIED', 'UNSPECIFIED', 'UNSPECIFIED', ('UNSPECIFIED'), ('UNSPECIFIED'), ('UNSPECIFIED') ) ;
#86 = CARTESIAN_POINT ( 'NONE',  ( 0.0000000000000000000, 0.0000000000000000000, 0.0000000000000000000 ) ) ;
#87 = PLANE ( 'NONE',  #59 ) ;
#88 = FACE_OUTER_BOUND ( 'NONE', #287, .T. ) ;
#89 = AXIS2_PLACEMENT_3D ( 'NONE', #58, #298, #157 ) ;
#90 = DIRECTION ( 'NONE',  ( -3.491481338843133355E-15, 1.224646799147353454E-16, -1.000000000000000000 ) ) ;
#91 = CARTESIAN_POINT ( 'NONE',  ( 3.618477223366789168E-14, 1.124999999999996891, 10.36373066958947220 ) ) ;
#92 = EDGE_CURVE ( 'NONE', #185, #185, #245, .T. ) ;
#93 = CIRCLE ( 'NONE', #89, 1.124999999999998224 ) ;
#94 = CARTESIAN_POINT ( 'NONE',  ( 2.119329172677781757E-13, 1.499999999999995559, 60.69999999999999574 ) ) ;
#95 = CARTESIAN_POINT ( 'NONE',  ( 3.491481338843133355E-14, 1.001089654926788503E-32, 10.00000000000000000 ) ) ;
#96 = ADVANCED_FACE ( 'NONE', ( #265, #63 ), #292, .T. ) ;
#97 = PERSON_AND_ORGANIZATION ( #85, #118 ) ;
#98 = COORDINATED_UNIVERSAL_TIME_OFFSET ( 1, 0, .AHEAD. ) ;
#99 = AXIS2_PLACEMENT_3D ( 'NONE', #35, #133, #37 ) ;
#100 = CALENDAR_DATE ( 2021, 2, 12 ) ;
#101 = ORIENTED_EDGE ( 'NONE', *, *, #41, .T. ) ;
#102 = APPLICATION_PROTOCOL_DEFINITION ( 'international standard', 'config_control_design', 1994, #28 ) ;
#103 = ORIENTED_EDGE ( 'NONE', *, *, #41, .F. ) ;
#104 =( LENGTH_UNIT ( ) NAMED_UNIT ( * ) SI_UNIT ( .MILLI., .METRE. ) );
#105 = ORIENTED_EDGE ( 'NONE', *, *, #218, .T. ) ;
#106 = CONICAL_SURFACE ( 'NONE', #180, 1.499999999999996003, 0.1745329251994260922 ) ;
#107 = ADVANCED_FACE ( 'NONE', ( #15, #65 ), #109, .T. ) ;
#108 = FACE_OUTER_BOUND ( 'NONE', #213, .T. ) ;
#109 = CYLINDRICAL_SURFACE ( 'NONE', #189, 1.499999999999999334 ) ;
#110 = DIRECTION ( 'NONE',  ( 0.0000000000000000000, -1.000000000000000000, 0.0000000000000000000 ) ) ;
#111 = CC_DESIGN_PERSON_AND_ORGANIZATION_ASSIGNMENT ( #212, #191, ( #131 ) ) ;
#112 = DIRECTION ( 'NONE',  ( 4.275831445896959482E-31, 1.000000000000000000, 1.224646799147353454E-16 ) ) ;
#113 = CYLINDRICAL_SURFACE ( 'NONE', #11, 1.334999999999999298 ) ;
#114 = AXIS2_PLACEMENT_3D ( 'NONE', #95, #42, #147 ) ;
#115 = FACE_BOUND ( 'NONE', #39, .T. ) ;
#116 = VERTEX_POINT ( 'NONE', #91 ) ;
#117 = DIRECTION ( 'NONE',  ( 0.0000000000000000000, 1.000000000000000000, 0.0000000000000000000 ) ) ;
#118 = ORGANIZATION ( 'UNSPECIFIED', 'UNSPECIFIED', '' ) ;
#119 = CARTESIAN_POINT ( 'NONE',  ( 2.119329172677781757E-13, -7.433606070824434221E-15, 60.69999999999999574 ) ) ;
#120 = LOCAL_TIME ( 8, 11, 30.00000000000000000, #264 ) ;
#121 = CC_DESIGN_PERSON_AND_ORGANIZATION_ASSIGNMENT ( #234, #52, ( #293 ) ) ;
#122 = DIRECTION ( 'NONE',  ( -4.327932459297163688E-31, -1.000000000000000000, -1.218204688185961296E-16 ) ) ;
#123 = ADVANCED_BREP_SHAPE_REPRESENTATION ( '200703', ( #55, #251, #221 ), #53 ) ;
#124 = DIRECTION ( 'NONE',  ( 1.000000000000000000, 0.0000000000000000000, 0.0000000000000000000 ) ) ;
#125 = ORIENTED_EDGE ( 'NONE', *, *, #272, .F. ) ;
#126 = CIRCLE ( 'NONE', #291, 1.334999999999999964 ) ;
#127 = APPROVAL ( #238, 'UNSPECIFIED' ) ;
#128 = COORDINATED_UNIVERSAL_TIME_OFFSET ( 1, 0, .AHEAD. ) ;
#129 = ORIENTED_EDGE ( 'NONE', *, *, #284, .F. ) ;
#130 = CIRCLE ( 'NONE', #31, 1.334999999999999964 ) ;
#131 = PRODUCT_DEFINITION_FORMATION_WITH_SPECIFIED_SOURCE ( 'ANY', '', #21, .NOT_KNOWN. ) ;
#132 = DATE_AND_TIME ( #295, #120 ) ;
#133 = DIRECTION ( 'NONE',  ( 3.491481338843133355E-15, -1.224646799147353454E-16, 1.000000000000000000 ) ) ;
#134 = FACE_BOUND ( 'NONE', #217, .T. ) ;
#135 = APPROVAL_ROLE ( '' ) ;
#136 = FACE_OUTER_BOUND ( 'NONE', #29, .T. ) ;
#137 = CIRCLE ( 'NONE', #274, 1.155384493975581517 ) ;
#138 = FACE_OUTER_BOUND ( 'NONE', #216, .T. ) ;
#139 = FACE_BOUND ( 'NONE', #236, .T. ) ;
#140 = DIRECTION ( 'NONE',  ( 4.327932459297163688E-31, 1.000000000000000000, 1.218204688185961296E-16 ) ) ;
#141 = ADVANCED_FACE ( 'NONE', ( #139, #136 ), #106, .T. ) ;
#142 = AXIS2_PLACEMENT_3D ( 'NONE', #26, #165, #122 ) ;
#143 = DIRECTION ( 'NONE',  ( 0.0000000000000000000, 1.000000000000000000, 0.0000000000000000000 ) ) ;
#144 = VERTEX_POINT ( 'NONE', #207 ) ;
#145 = CARTESIAN_POINT ( 'NONE',  ( 8.728703347107833388E-14, 1.124999999999996669, 25.00000000000000000 ) ) ;
#146 = CONICAL_SURFACE ( 'NONE', #142, 1.334999999999998632, 0.7853981633974435050 ) ;
#147 = DIRECTION ( 'NONE',  ( -4.275831445896959482E-31, -1.000000000000000000, -1.224646799147353454E-16 ) ) ;
#148 = CARTESIAN_POINT ( 'NONE',  ( 0.0000000000000000000, 0.0000000000000000000, 0.0000000000000000000 ) ) ;
#149 = ADVANCED_FACE ( 'NONE', ( #202 ), #87, .F. ) ;
#150 = ORIENTED_EDGE ( 'NONE', *, *, #181, .T. ) ;
#151 = CALENDAR_DATE ( 2021, 2, 12 ) ;
#152 = PERSON_AND_ORGANIZATION ( #85, #118 ) ;
#153 = EDGE_LOOP ( 'NONE', ( #260 ) ) ;
#154 = DIRECTION ( 'NONE',  ( -3.491481338843133355E-15, 1.224646799147353454E-16, -1.000000000000000000 ) ) ;
#155 = TOROIDAL_SURFACE ( 'NONE', #258, 3.124999999999999556, 2.000000000000000000 ) ;
#156 = LOCAL_TIME ( 8, 11, 30.00000000000000000, #167 ) ;
#157 = DIRECTION ( 'NONE',  ( 0.0000000000000000000, 1.000000000000000000, 0.0000000000000000000 ) ) ;
#158 = CLOSED_SHELL ( 'NONE', ( #73, #200, #96, #30, #141, #107, #62, #225 ) ) ;
#159 = DIRECTION ( 'NONE',  ( 4.275831445896960358E-31, 1.000000000000000000, 1.224646799147353454E-16 ) ) ;
#160 = FACE_BOUND ( 'NONE', #256, .T. ) ;
#161 = DIRECTION ( 'NONE',  ( -3.491481338843133355E-15, 1.224646799147353454E-16, -1.000000000000000000 ) ) ;
#162 = LOCAL_TIME ( 8, 11, 30.00000000000000000, #128 ) ;
#163 = CARTESIAN_POINT ( 'NONE',  ( 9.532340403339404450E-14, 1.499999999999992673, 27.30170800940854292 ) ) ;
#164 = VERTEX_POINT ( 'NONE', #46 ) ;
#165 = DIRECTION ( 'NONE',  ( 3.491481338843133355E-15, -1.224646799147353454E-16, 1.000000000000000000 ) ) ;
#166 = AXIS2_PLACEMENT_3D ( 'NONE', #209, #188, #273 ) ;
#167 = COORDINATED_UNIVERSAL_TIME_OFFSET ( 1, 0, .AHEAD. ) ;
#168 = ORIENTED_EDGE ( 'NONE', *, *, #181, .F. ) ;
#169 = ADVANCED_FACE ( 'NONE', ( #115, #270 ), #146, .T. ) ;
#170 = VERTEX_POINT ( 'NONE', #172 ) ;
#171 = ORIENTED_EDGE ( 'NONE', *, *, #229, .F. ) ;
#172 = CARTESIAN_POINT ( 'NONE',  ( 3.491481338843133355E-14, 1.334999999999998632, 10.00000000000000000 ) ) ;
#173 = COORDINATED_UNIVERSAL_TIME_OFFSET ( 1, 0, .AHEAD. ) ;
#174 = CARTESIAN_POINT ( 'NONE',  ( 2.931666186734439233E-31, -1.028290076137841516E-32, 8.396625678961288966E-17 ) ) ;
#175 = CIRCLE ( 'NONE', #249, 1.500000000000002887 ) ;
#176 = CARTESIAN_POINT ( 'NONE',  ( 0.0000000000000000000, 0.0000000000000000000, 0.0000000000000000000 ) ) ;
#177 = CC_DESIGN_PERSON_AND_ORGANIZATION_ASSIGNMENT ( #32, #7, ( #21 ) ) ;
#178 = CARTESIAN_POINT ( 'NONE',  ( 1.465833093367219617E-31, -5.141450380689207579E-33, 4.198312839480644483E-17 ) ) ;
#179 = DIRECTION ( 'NONE',  ( -3.491481338843133355E-15, 1.224646799147353454E-16, -1.000000000000000000 ) ) ;
#180 = AXIS2_PLACEMENT_3D ( 'NONE', #220, #18, #110 ) ;
#181 = EDGE_CURVE ( 'NONE', #68, #68, #75, .T. ) ;
#182 = PRODUCT_RELATED_PRODUCT_CATEGORY ( 'detail', '', ( #21 ) ) ;
#183 = DIRECTION ( 'NONE',  ( -3.491481338843133355E-15, 1.224646799147353454E-16, -1.000000000000000000 ) ) ;
#184 = UNCERTAINTY_MEASURE_WITH_UNIT (LENGTH_MEASURE( 1.000000000000000082E-05 ), #104, 'distance_accuracy_value', 'NONE');
#185 = VERTEX_POINT ( 'NONE', #250 ) ;
#186 = CC_DESIGN_APPROVAL ( #24, ( #131 ) ) ;
#187 = DIRECTION ( 'NONE',  ( 4.275831445896959482E-31, 1.000000000000000000, 1.224646799147353454E-16 ) ) ;
#188 = DIRECTION ( 'NONE',  ( -3.491481338843133355E-15, 1.224646799147353454E-16, -1.000000000000000000 ) ) ;
#189 = AXIS2_PLACEMENT_3D ( 'NONE', #176, #243, #159 ) ;
#190 = APPROVAL_DATE_TIME ( #50, #24 ) ;
#191 = PERSON_AND_ORGANIZATION_ROLE ( 'creator' ) ;
#192 = APPROVAL ( #290, 'UNSPECIFIED' ) ;
#193 =( NAMED_UNIT ( * ) SI_UNIT ( $, .STERADIAN. ) SOLID_ANGLE_UNIT ( ) );
#194 = EDGE_LOOP ( 'NONE', ( #196 ) ) ;
#195 = AXIS2_PLACEMENT_3D ( 'NONE', #266, #19, #267 ) ;
#196 = ORIENTED_EDGE ( 'NONE', *, *, #33, .F. ) ;
#197 = ORIENTED_EDGE ( 'NONE', *, *, #272, .T. ) ;
#198 = ORIENTED_EDGE ( 'NONE', *, *, #92, .T. ) ;
#199 = PERSON_AND_ORGANIZATION_ROLE ( 'classification_officer' ) ;
#200 = ADVANCED_FACE ( 'NONE', ( #66, #160 ), #208, .T. ) ;
#201 = EDGE_LOOP ( 'NONE', ( #77 ) ) ;
#202 = FACE_OUTER_BOUND ( 'NONE', #80, .T. ) ;
#203 = DIRECTION ( 'NONE',  ( -3.491481338843133355E-15, 1.224646799147353454E-16, -1.000000000000000000 ) ) ;
#204 = AXIS2_PLACEMENT_3D ( 'NONE', #61, #226, #112 ) ;
#205 = VERTEX_POINT ( 'NONE', #206 ) ;
#206 = CARTESIAN_POINT ( 'NONE',  ( 3.491481338843133355E-14, 1.334999999999998632, 10.00000000000000000 ) ) ;
#207 = CARTESIAN_POINT ( 'NONE',  ( 8.728703347107835360E-16, 1.334999999999998632, 0.2500000000000000555 ) ) ;
#208 = CONICAL_SURFACE ( 'NONE', #38, 1.124999999999998224, 0.5235987755982933756 ) ;
#209 = CARTESIAN_POINT ( 'NONE',  ( 8.728703347107833388E-14, -3.061616997868383831E-15, 25.00000000000000000 ) ) ;
#210 = DATE_AND_TIME ( #100, #281 ) ;
#211 = ADVANCED_FACE ( 'NONE', ( #3 ), #25, .T. ) ;
#212 = PERSON_AND_ORGANIZATION ( #85, #118 ) ;
#213 = EDGE_LOOP ( 'NONE', ( #105 ) ) ;
#214 = AXIS2_PLACEMENT_3D ( 'NONE', #174, #179, #269 ) ;
#215 = DATE_AND_TIME ( #255, #162 ) ;
#216 = EDGE_LOOP ( 'NONE', ( #285 ) ) ;
#217 = EDGE_LOOP ( 'NONE', ( #197 ) ) ;
#218 = EDGE_CURVE ( 'NONE', #164, #164, #137, .T. ) ;
#219 = FACE_OUTER_BOUND ( 'NONE', #12, .T. ) ;
#220 = CARTESIAN_POINT ( 'NONE',  ( 9.532340403339404450E-14, -3.343494932497783816E-15, 27.30170800940854292 ) ) ;
#221 = AXIS2_PLACEMENT_3D ( 'NONE', #148, #286, #124 ) ;
#222 = CC_DESIGN_APPROVAL ( #127, ( #293 ) ) ;
#223 = APPROVAL_DATE_TIME ( #13, #192 ) ;
#224 = DIRECTION ( 'NONE',  ( 4.275831445896959482E-31, 1.000000000000000000, 1.224646799147353700E-16 ) ) ;
#225 = ADVANCED_FACE ( 'NONE', ( #27 ), #43, .F. ) ;
#226 = DIRECTION ( 'NONE',  ( -3.491481338843133355E-15, 1.224646799147353454E-16, -1.000000000000000000 ) ) ;
#227 = DIRECTION ( 'NONE',  ( -4.275831445896959482E-31, -1.000000000000000000, -1.224646799147353454E-16 ) ) ;
#228 = DIRECTION ( 'NONE',  ( -3.491481338843133355E-15, 1.224646799147353454E-16, -1.000000000000000000 ) ) ;
#229 = EDGE_CURVE ( 'NONE', #144, #144, #280, .T. ) ;
#230 = DIRECTION ( 'NONE',  ( 0.0000000000000000000, 1.000000000000000000, 0.0000000000000000000 ) ) ;
#231 = LOCAL_TIME ( 8, 11, 30.00000000000000000, #173 ) ;
#232 = CARTESIAN_POINT ( 'NONE',  ( 2.129803616694311221E-13, 8.998558695971062171E-33, 61.00000000000000000 ) ) ;
#233 = EDGE_CURVE ( 'NONE', #252, #252, #175, .T. ) ;
#234 = PERSON_AND_ORGANIZATION ( #85, #118 ) ;
#235 = PRODUCT_DEFINITION_SHAPE ( 'NONE', 'NONE',  #293 ) ;
#236 = EDGE_LOOP ( 'NONE', ( #57 ) ) ;
#237 = EDGE_LOOP ( 'NONE', ( #10 ) ) ;
#238 = APPROVAL_STATUS ( 'not_yet_approved' ) ;
#239 = DATE_TIME_ROLE ( 'classification_date' ) ;
#240 = CIRCLE ( 'NONE', #44, 1.200000000000002842 ) ;
#241 = DIRECTION ( 'NONE',  ( 0.0000000000000000000, 1.000000000000000000, 0.0000000000000000000 ) ) ;
#242 = FACE_OUTER_BOUND ( 'NONE', #261, .T. ) ;
#243 = DIRECTION ( 'NONE',  ( -3.491481338843133355E-15, 1.224646799147353454E-16, -1.000000000000000000 ) ) ;
#244 = EDGE_CURVE ( 'NONE', #47, #47, #300, .T. ) ;
#245 = CIRCLE ( 'NONE', #214, 1.085000000000001297 ) ;
#246 = CARTESIAN_POINT ( 'NONE',  ( 3.618477223366789168E-14, -1.269190959173800578E-15, 10.36373066958947220 ) ) ;
#247 = DIRECTION ( 'NONE',  ( 0.0000000000000000000, 1.000000000000000000, 0.0000000000000000000 ) ) ;
#248 = DESIGN_CONTEXT ( 'detailed design', #28, 'design' ) ;
#249 = AXIS2_PLACEMENT_3D ( 'NONE', #119, #1, #230 ) ;
#250 = CARTESIAN_POINT ( 'NONE',  ( 7.570943305532645426E-31, 1.085000000000001297, 2.168404344971008868E-16 ) ) ;
#251 = MANIFOLD_SOLID_BREP ( 'Corps-Déplacer/Copier1[2]', #16 ) ;
#252 = VERTEX_POINT ( 'NONE', #94 ) ;
#253 = APPLICATION_PROTOCOL_DEFINITION ( 'international standard', 'config_control_design', 1994, #279 ) ;
#254 = EDGE_LOOP ( 'NONE', ( #125 ) ) ;
#255 = CALENDAR_DATE ( 2021, 2, 12 ) ;
#256 = EDGE_LOOP ( 'NONE', ( #82 ) ) ;
#257 = PERSON_AND_ORGANIZATION ( #85, #118 ) ;
#258 = AXIS2_PLACEMENT_3D ( 'NONE', #83, #203, #263 ) ;
#259 = APPROVAL_STATUS ( 'not_yet_approved' ) ;
#260 = ORIENTED_EDGE ( 'NONE', *, *, #233, .T. ) ;
#261 = EDGE_LOOP ( 'NONE', ( #171 ) ) ;
#262 = SHAPE_DEFINITION_REPRESENTATION ( #235, #123 ) ;
#263 = DIRECTION ( 'NONE',  ( 4.275831445896959482E-31, 1.000000000000000000, 1.224646799147353454E-16 ) ) ;
#264 = COORDINATED_UNIVERSAL_TIME_OFFSET ( 1, 0, .AHEAD. ) ;
#265 = FACE_OUTER_BOUND ( 'NONE', #194, .T. ) ;
#266 = CARTESIAN_POINT ( 'NONE',  ( 2.129803616694311221E-13, -7.470345474798856659E-15, 61.00000000000000000 ) ) ;
#267 = DIRECTION ( 'NONE',  ( 0.0000000000000000000, 1.000000000000000000, 0.0000000000000000000 ) ) ;
#268 = CALENDAR_DATE ( 2021, 2, 12 ) ;
#269 = DIRECTION ( 'NONE',  ( 4.275831445896959482E-31, 1.000000000000000000, 1.224646799147353454E-16 ) ) ;
#270 = FACE_OUTER_BOUND ( 'NONE', #237, .T. ) ;
#271 = DIRECTION ( 'NONE',  ( -3.491481338843133355E-15, 1.224646799147353454E-16, -1.000000000000000000 ) ) ;
#272 = EDGE_CURVE ( 'NONE', #278, #278, #240, .T. ) ;
#273 = DIRECTION ( 'NONE',  ( 0.0000000000000000000, 1.000000000000000000, 0.0000000000000000000 ) ) ;
#274 = AXIS2_PLACEMENT_3D ( 'NONE', #67, #228, #247 ) ;
#275 = AXIS2_PLACEMENT_3D ( 'NONE', #299, #303, #140 ) ;
#276 = CARTESIAN_POINT ( 'NONE',  ( 9.532340403339404450E-14, -3.343494932497783816E-15, 27.30170800940854292 ) ) ;
#277 = CC_DESIGN_PERSON_AND_ORGANIZATION_ASSIGNMENT ( #297, #199, ( #70 ) ) ;
#278 = VERTEX_POINT ( 'NONE', #4 ) ;
#279 = APPLICATION_CONTEXT ( 'configuration controlled 3d designs of mechanical parts and assemblies' ) ;
#280 = CIRCLE ( 'NONE', #275, 1.334999999999998632 ) ;
#281 = LOCAL_TIME ( 8, 11, 30.00000000000000000, #98 ) ;
#282 = DATE_TIME_ROLE ( 'creation_date' ) ;
#283 = SECURITY_CLASSIFICATION_LEVEL ( 'unclassified' ) ;
#284 = EDGE_CURVE ( 'NONE', #170, #170, #126, .T. ) ;
#285 = ORIENTED_EDGE ( 'NONE', *, *, #284, .T. ) ;
#286 = DIRECTION ( 'NONE',  ( 0.0000000000000000000, 0.0000000000000000000, 1.000000000000000000 ) ) ;
#287 = EDGE_LOOP ( 'NONE', ( #56 ) ) ;
#288 = EDGE_LOOP ( 'NONE', ( #103 ) ) ;
#289 = FACE_OUTER_BOUND ( 'NONE', #201, .T. ) ;
#290 = APPROVAL_STATUS ( 'not_yet_approved' ) ;
#291 = AXIS2_PLACEMENT_3D ( 'NONE', #23, #90, #48 ) ;
#292 = CYLINDRICAL_SURFACE ( 'NONE', #204, 1.124999999999998890 ) ;
#293 = PRODUCT_DEFINITION ( 'UNKNOWN', '', #131, #248 ) ;
#294 = CC_DESIGN_SECURITY_CLASSIFICATION ( #70, ( #131 ) ) ;
#295 = CALENDAR_DATE ( 2021, 2, 12 ) ;
#296 = EDGE_LOOP ( 'NONE', ( #168 ) ) ;
#297 = PERSON_AND_ORGANIZATION ( #85, #118 ) ;
#298 = DIRECTION ( 'NONE',  ( -3.491481338843133355E-15, 1.224646799147353454E-16, -1.000000000000000000 ) ) ;
#299 = CARTESIAN_POINT ( 'NONE',  ( 8.728703347107829444E-16, -3.061616997868382402E-17, 0.2499999999999998890 ) ) ;
#300 = CIRCLE ( 'NONE', #166, 1.124999999999999778 ) ;
#301 = APPROVAL_PERSON_ORGANIZATION ( #97, #24, #74 ) ;
#302 = DIRECTION ( 'NONE',  ( -3.491481338843133355E-15, 1.224646799147353454E-16, -1.000000000000000000 ) ) ;
#303 = DIRECTION ( 'NONE',  ( -3.491481338843133355E-15, 1.224646799147353454E-16, -1.000000000000000000 ) ) ;
ENDSEC;
END-ISO-10303-21;
