ISO-10303-21;
HEADER;
FILE_DESCRIPTION (( 'STEP AP203' ),
    '1' );
FILE_NAME ('200702.step',
    '2021-12-01T14:03:35',
    ( '' ),
    ( '' ),
    'SwSTEP 2.0',
    'SolidWorks 2019',
    '' );
FILE_SCHEMA (( 'CONFIG_CONTROL_DESIGN' ));
ENDSEC;

DATA;
#1 = ORIENTED_EDGE ( 'NONE', *, *, #193, .T. ) ;
#2 = CARTESIAN_POINT ( 'NONE',  ( 6.982962677686266711E-14, -2.602085213965210642E-15, 20.00000000000000000 ) ) ;
#3 = EDGE_CURVE ( 'NONE', #66, #66, #89, .T. ) ;
#4 = AXIS2_PLACEMENT_3D ( 'NONE', #263, #243, #37 ) ;
#5 = LOCAL_TIME ( 15, 3, 35.00000000000000000, #240 ) ;
#6 = ADVANCED_BREP_SHAPE_REPRESENTATION ( '200702', ( #264, #172, #22 ), #140 ) ;
#7 = COORDINATED_UNIVERSAL_TIME_OFFSET ( 1, 0, .AHEAD. ) ;
#8 = CARTESIAN_POINT ( 'NONE',  ( 7.104220552055901835E-14, 1.040384493975579305, 20.34729635533384595 ) ) ;
#9 = AXIS2_PLACEMENT_3D ( 'NONE', #123, #191, #277 ) ;
#10 = PERSON_AND_ORGANIZATION_ROLE ( 'design_supplier' ) ;
#11 = DIRECTION ( 'NONE',  ( 0.0000000000000000000, 1.000000000000000000, 0.0000000000000000000 ) ) ;
#12 = AXIS2_PLACEMENT_3D ( 'NONE', #261, #126, #58 ) ;
#13 = EDGE_LOOP ( 'NONE', ( #159 ) ) ;
#14 = CARTESIAN_POINT ( 'NONE',  ( 0.0000000000000000000, 0.0000000000000000000, 0.0000000000000000000 ) ) ;
#15 = FACE_BOUND ( 'NONE', #87, .T. ) ;
#16 = VERTEX_POINT ( 'NONE', #117 ) ;
#17 = EDGE_LOOP ( 'NONE', ( #36 ) ) ;
#18 = DIRECTION ( 'NONE',  ( 0.0000000000000000000, 1.000000000000000000, 0.0000000000000000000 ) ) ;
#19 = VERTEX_POINT ( 'NONE', #156 ) ;
#20 = APPLICATION_CONTEXT ( 'configuration controlled 3d designs of mechanical parts and assemblies' ) ;
#21 = ADVANCED_FACE ( 'NONE', ( #164 ), #27, .F. ) ;
#22 = AXIS2_PLACEMENT_3D ( 'NONE', #26, #143, #122 ) ;
#23 = AXIS2_PLACEMENT_3D ( 'NONE', #116, #113, #206 ) ;
#24 = COORDINATED_UNIVERSAL_TIME_OFFSET ( 1, 0, .AHEAD. ) ;
#25 = DIRECTION ( 'NONE',  ( -3.491481338843133355E-15, 1.224646799147353207E-16, -1.000000000000000000 ) ) ;
#26 = CARTESIAN_POINT ( 'NONE',  ( 0.0000000000000000000, 0.0000000000000000000, 0.0000000000000000000 ) ) ;
#27 = PLANE ( 'NONE',  #107 ) ;
#28 = ORIENTED_EDGE ( 'NONE', *, *, #193, .F. ) ;
#29 = DIRECTION ( 'NONE',  ( 4.275831445896958607E-31, 1.000000000000000000, 1.224646799147353207E-16 ) ) ;
#30 = EDGE_CURVE ( 'NONE', #158, #158, #127, .T. ) ;
#31 = CARTESIAN_POINT ( 'NONE',  ( 8.728703347107835360E-16, 1.159999999999999032, 0.2500000000000000555 ) ) ;
#32 =( LENGTH_UNIT ( ) NAMED_UNIT ( * ) SI_UNIT ( .MILLI., .METRE. ) );
#33 = FACE_OUTER_BOUND ( 'NONE', #98, .T. ) ;
#34 = CC_DESIGN_PERSON_AND_ORGANIZATION_ASSIGNMENT ( #179, #35, ( #215 ) ) ;
#35 = PERSON_AND_ORGANIZATION_ROLE ( 'classification_officer' ) ;
#36 = ORIENTED_EDGE ( 'NONE', *, *, #30, .F. ) ;
#37 = DIRECTION ( 'NONE',  ( -4.275831445896958607E-31, -1.000000000000000000, -1.224646799147353207E-16 ) ) ;
#38 = CIRCLE ( 'NONE', #91, 1.015662432702594486 ) ;
#39 = CIRCLE ( 'NONE', #92, 1.159999999999999032 ) ;
#40 = DATE_AND_TIME ( #290, #104 ) ;
#41 = CARTESIAN_POINT ( 'NONE',  ( 0.0000000000000000000, 0.0000000000000000000, 0.0000000000000000000 ) ) ;
#42 = DIRECTION ( 'NONE',  ( 0.0000000000000000000, 1.000000000000000000, 0.0000000000000000000 ) ) ;
#43 = DIRECTION ( 'NONE',  ( 4.275831445896958607E-31, 1.000000000000000000, 1.224646799147353207E-16 ) ) ;
#44 = ORIENTED_EDGE ( 'NONE', *, *, #296, .T. ) ;
#45 = PRODUCT_DEFINITION_SHAPE ( 'NONE', 'NONE',  #160 ) ;
#46 = EDGE_CURVE ( 'NONE', #68, #68, #165, .T. ) ;
#47 = CARTESIAN_POINT ( 'NONE',  ( -4.064136510466140360E-31, 1.425507194745418071E-32, -1.164014959854475377E-16 ) ) ;
#48 = APPLICATION_PROTOCOL_DEFINITION ( 'international standard', 'config_control_design', 1994, #99 ) ;
#49 = DIRECTION ( 'NONE',  ( -4.275831445896958607E-31, -1.000000000000000000, -1.224646799147353207E-16 ) ) ;
#50 = CLOSED_SHELL ( 'NONE', ( #21, #241, #224, #61, #138, #262, #201, #235 ) ) ;
#51 = EDGE_LOOP ( 'NONE', ( #111 ) ) ;
#52 = CC_DESIGN_PERSON_AND_ORGANIZATION_ASSIGNMENT ( #69, #189, ( #160 ) ) ;
#53 = CARTESIAN_POINT ( 'NONE',  ( 1.735266225405037467E-13, -6.086494591762345225E-15, 49.70000000000000284 ) ) ;
#54 = AXIS2_PLACEMENT_3D ( 'NONE', #142, #25, #181 ) ;
#55 =( NAMED_UNIT ( * ) SI_UNIT ( $, .STERADIAN. ) SOLID_ANGLE_UNIT ( ) );
#56 = VERTEX_POINT ( 'NONE', #237 ) ;
#57 = PERSON_AND_ORGANIZATION ( #93, #256 ) ;
#58 = DIRECTION ( 'NONE',  ( 4.275831445896958607E-31, 1.000000000000000000, 1.224646799147353207E-16 ) ) ;
#59 = CC_DESIGN_DATE_AND_TIME_ASSIGNMENT ( #150, #245, ( #215 ) ) ;
#60 = DIRECTION ( 'NONE',  ( -3.491481338843133355E-15, 1.224646799147353207E-16, -1.000000000000000000 ) ) ;
#61 = ADVANCED_FACE ( 'NONE', ( #125, #255 ), #169, .F. ) ;
#62 = APPROVAL_PERSON_ORGANIZATION ( #71, #147, #216 ) ;
#63 = CONICAL_SURFACE ( 'NONE', #230, 1.200000000000001732, 0.7853981633974453924 ) ;
#64 = DIRECTION ( 'NONE',  ( 0.0000000000000000000, 1.000000000000000000, 0.0000000000000000000 ) ) ;
#65 = DIRECTION ( 'NONE',  ( 3.491481338843133355E-15, -1.224646799147353207E-16, 1.000000000000000000 ) ) ;
#66 = VERTEX_POINT ( 'NONE', #207 ) ;
#67 = EDGE_LOOP ( 'NONE', ( #213 ) ) ;
#68 = VERTEX_POINT ( 'NONE', #228 ) ;
#69 = PERSON_AND_ORGANIZATION ( #93, #256 ) ;
#70 = DIRECTION ( 'NONE',  ( 4.980853304449752365E-31, 1.000000000000000000, 1.401985567869188026E-16 ) ) ;
#71 = PERSON_AND_ORGANIZATION ( #93, #256 ) ;
#72 = CARTESIAN_POINT ( 'NONE',  ( 3.491481338843133355E-14, 8.698606739438758251E-33, 10.00000000000000000 ) ) ;
#73 = EDGE_LOOP ( 'NONE', ( #260 ) ) ;
#74 = EDGE_CURVE ( 'NONE', #19, #19, #119, .T. ) ;
#75 = CC_DESIGN_APPROVAL ( #110, ( #160 ) ) ;
#76 = DIRECTION ( 'NONE',  ( 0.0000000000000000000, 1.000000000000000000, 0.0000000000000000000 ) ) ;
#77 = VERTEX_POINT ( 'NONE', #173 ) ;
#78 = CC_DESIGN_PERSON_AND_ORGANIZATION_ASSIGNMENT ( #218, #10, ( #154 ) ) ;
#79 = EDGE_LOOP ( 'NONE', ( #293 ) ) ;
#80 = APPROVAL_STATUS ( 'not_yet_approved' ) ;
#81 = PLANE ( 'NONE',  #4 ) ;
#82 = ADVANCED_FACE ( 'NONE', ( #248, #300 ), #155, .T. ) ;
#83 = CARTESIAN_POINT ( 'NONE',  ( 1.745740669421566678E-13, -6.123233995736766085E-15, 50.00000000000000000 ) ) ;
#84 = APPROVAL_DATE_TIME ( #40, #147 ) ;
#85 = FACE_OUTER_BOUND ( 'NONE', #302, .T. ) ;
#86 = DIRECTION ( 'NONE',  ( 4.275831445896958607E-31, 1.000000000000000000, 1.224646799147353454E-16 ) ) ;
#87 = EDGE_LOOP ( 'NONE', ( #146 ) ) ;
#88 = CYLINDRICAL_SURFACE ( 'NONE', #180, 1.159999999999999476 ) ;
#89 = CIRCLE ( 'NONE', #9, 1.200000000000001732 ) ;
#90 = APPROVAL ( #80, 'UNSPECIFIED' ) ;
#91 = AXIS2_PLACEMENT_3D ( 'NONE', #204, #182, #136 ) ;
#92 = AXIS2_PLACEMENT_3D ( 'NONE', #267, #188, #70 ) ;
#93 = PERSON ( 'UNSPECIFIED', 'UNSPECIFIED', 'UNSPECIFIED', ('UNSPECIFIED'), ('UNSPECIFIED'), ('UNSPECIFIED') ) ;
#94 = DIRECTION ( 'NONE',  ( -3.491481338843133355E-15, 1.224646799147353207E-16, -1.000000000000000000 ) ) ;
#95 = ADVANCED_FACE ( 'NONE', ( #85 ), #252, .F. ) ;
#96 = APPROVAL_DATE_TIME ( #273, #110 ) ;
#97 = APPLICATION_PROTOCOL_DEFINITION ( 'international standard', 'config_control_design', 1994, #20 ) ;
#98 = EDGE_LOOP ( 'NONE', ( #284 ) ) ;
#99 = APPLICATION_CONTEXT ( 'configuration controlled 3d designs of mechanical parts and assemblies' ) ;
#100 = EDGE_LOOP ( 'NONE', ( #28 ) ) ;
#101 = CARTESIAN_POINT ( 'NONE',  ( 8.014313242283776685E-14, -2.811042679889870215E-15, 22.95390541866461120 ) ) ;
#102 = AXIS2_PLACEMENT_3D ( 'NONE', #239, #220, #11 ) ;
#103 = AXIS2_PLACEMENT_3D ( 'NONE', #2, #166, #29 ) ;
#104 = LOCAL_TIME ( 15, 3, 35.00000000000000000, #7 ) ;
#105 = VERTEX_POINT ( 'NONE', #31 ) ;
#106 = COORDINATED_UNIVERSAL_TIME_OFFSET ( 1, 0, .AHEAD. ) ;
#107 = AXIS2_PLACEMENT_3D ( 'NONE', #72, #233, #49 ) ;
#108 = PERSON_AND_ORGANIZATION ( #93, #256 ) ;
#109 = FACE_OUTER_BOUND ( 'NONE', #205, .T. ) ;
#110 = APPROVAL ( #190, 'UNSPECIFIED' ) ;
#111 = ORIENTED_EDGE ( 'NONE', *, *, #118, .F. ) ;
#112 = FACE_BOUND ( 'NONE', #67, .T. ) ;
#113 = DIRECTION ( 'NONE',  ( 3.491481338843133355E-15, -1.224646799147353207E-16, 1.000000000000000000 ) ) ;
#114 = FACE_OUTER_BOUND ( 'NONE', #115, .T. ) ;
#115 = EDGE_LOOP ( 'NONE', ( #131 ) ) ;
#116 = CARTESIAN_POINT ( 'NONE',  ( 8.014313242283776685E-14, -2.811042679889870215E-15, 22.95390541866461120 ) ) ;
#117 = CARTESIAN_POINT ( 'NONE',  ( 6.982962677686266711E-14, 1.009999999999997788, 20.00000000000000000 ) ) ;
#118 = EDGE_CURVE ( 'NONE', #16, #16, #141, .T. ) ;
#119 = CIRCLE ( 'NONE', #280, 1.500000000000001554 ) ;
#120 = LOCAL_TIME ( 15, 3, 35.00000000000000000, #106 ) ;
#121 = APPROVAL_ROLE ( '' ) ;
#122 = DIRECTION ( 'NONE',  ( 1.000000000000000000, 0.0000000000000000000, 0.0000000000000000000 ) ) ;
#123 = CARTESIAN_POINT ( 'NONE',  ( 1.745740669421566678E-13, -6.123233995736766085E-15, 50.00000000000000000 ) ) ;
#124 = EDGE_LOOP ( 'NONE', ( #152 ) ) ;
#125 = FACE_OUTER_BOUND ( 'NONE', #51, .T. ) ;
#126 = DIRECTION ( 'NONE',  ( -3.491481338843133355E-15, 1.224646799147353207E-16, -1.000000000000000000 ) ) ;
#127 = CIRCLE ( 'NONE', #219, 1.160000000000000142 ) ;
#128 = APPROVAL_ROLE ( '' ) ;
#129 = APPROVAL_PERSON_ORGANIZATION ( #301, #110, #121 ) ;
#130 = CIRCLE ( 'NONE', #298, 1.009999999999999121 ) ;
#131 = ORIENTED_EDGE ( 'NONE', *, *, #74, .T. ) ;
#132 = FACE_OUTER_BOUND ( 'NONE', #79, .T. ) ;
#133 = CALENDAR_DATE ( 2021, 1, 12 ) ;
#134 = DIRECTION ( 'NONE',  ( -3.491481338843133355E-15, 1.224646799147353207E-16, -1.000000000000000000 ) ) ;
#135 = CARTESIAN_POINT ( 'NONE',  ( 3.582192684931459116E-14, -1.256464056309101033E-15, 10.25980762113533729 ) ) ;
#136 = DIRECTION ( 'NONE',  ( 4.275831445896958607E-31, 1.000000000000000000, 1.224646799147353207E-16 ) ) ;
#137 = EDGE_LOOP ( 'NONE', ( #269 ) ) ;
#138 = ADVANCED_FACE ( 'NONE', ( #15, #203 ), #271, .T. ) ;
#139 = DATE_TIME_ROLE ( 'creation_date' ) ;
#140 =( GEOMETRIC_REPRESENTATION_CONTEXT ( 3 ) GLOBAL_UNCERTAINTY_ASSIGNED_CONTEXT ( ( #177 ) ) GLOBAL_UNIT_ASSIGNED_CONTEXT ( ( #32, #258, #55 ) ) REPRESENTATION_CONTEXT ( 'NONE', 'WORKASPACE' ) );
#141 = CIRCLE ( 'NONE', #54, 1.010000000000000231 ) ;
#142 = CARTESIAN_POINT ( 'NONE',  ( 6.982962677686266711E-14, -2.449293598294706513E-15, 20.00000000000000000 ) ) ;
#143 = DIRECTION ( 'NONE',  ( 0.0000000000000000000, 0.0000000000000000000, 1.000000000000000000 ) ) ;
#144 = CARTESIAN_POINT ( 'NONE',  ( 3.491481338843133355E-14, -1.224646799147353256E-15, 10.00000000000000000 ) ) ;
#145 = AXIS2_PLACEMENT_3D ( 'NONE', #101, #194, #148 ) ;
#146 = ORIENTED_EDGE ( 'NONE', *, *, #296, .F. ) ;
#147 = APPROVAL ( #283, 'UNSPECIFIED' ) ;
#148 = DIRECTION ( 'NONE',  ( 0.0000000000000000000, 1.000000000000000000, 0.0000000000000000000 ) ) ;
#149 = EDGE_CURVE ( 'NONE', #56, #56, #244, .T. ) ;
#150 = DATE_AND_TIME ( #259, #120 ) ;
#151 = FACE_BOUND ( 'NONE', #242, .T. ) ;
#152 = ORIENTED_EDGE ( 'NONE', *, *, #30, .T. ) ;
#153 = FACE_OUTER_BOUND ( 'NONE', #100, .T. ) ;
#154 = PRODUCT_DEFINITION_FORMATION_WITH_SPECIFIED_SOURCE ( 'ANY', '', #275, .NOT_KNOWN. ) ;
#155 = CONICAL_SURFACE ( 'NONE', #186, 1.159999999999999032, 0.5235987755982924874 ) ;
#156 = CARTESIAN_POINT ( 'NONE',  ( 1.735266225405037467E-13, 1.499999999999995559, 49.70000000000000284 ) ) ;
#157 = DIRECTION ( 'NONE',  ( -4.980853304449752365E-31, -1.000000000000000000, -1.401985567869188026E-16 ) ) ;
#158 = VERTEX_POINT ( 'NONE', #225 ) ;
#159 = ORIENTED_EDGE ( 'NONE', *, *, #171, .F. ) ;
#160 = PRODUCT_DEFINITION ( 'UNKNOWN', '', #154, #288 ) ;
#161 = CALENDAR_DATE ( 2021, 1, 12 ) ;
#162 = DIRECTION ( 'NONE',  ( 3.491481338843133355E-15, -1.224646799147353207E-16, 1.000000000000000000 ) ) ;
#163 = PERSON_AND_ORGANIZATION ( #93, #256 ) ;
#164 = FACE_OUTER_BOUND ( 'NONE', #124, .T. ) ;
#165 = CIRCLE ( 'NONE', #145, 1.499999999999996669 ) ;
#166 = DIRECTION ( 'NONE',  ( -3.491481338843133355E-15, 1.224646799147353207E-16, -1.000000000000000000 ) ) ;
#167 = ORIENTED_EDGE ( 'NONE', *, *, #118, .T. ) ;
#168 = CONICAL_SURFACE ( 'NONE', #102, 1.009999999999999121, 0.5235987755982934866 ) ;
#169 = TOROIDAL_SURFACE ( 'NONE', #103, 3.010000000000000675, 2.000000000000000000 ) ;
#170 = CC_DESIGN_SECURITY_CLASSIFICATION ( #215, ( #154 ) ) ;
#171 = EDGE_CURVE ( 'NONE', #105, #105, #39, .T. ) ;
#172 = MANIFOLD_SOLID_BREP ( 'Corps-Déplacer/Copier1[2]', #185 ) ;
#173 = CARTESIAN_POINT ( 'NONE',  ( -3.785471652766323589E-31, 1.015662432702594486, -1.084202172485504434E-16 ) ) ;
#174 = PERSON_AND_ORGANIZATION_ROLE ( 'creator' ) ;
#175 = FACE_OUTER_BOUND ( 'NONE', #254, .T. ) ;
#176 = FACE_OUTER_BOUND ( 'NONE', #226, .T. ) ;
#177 = UNCERTAINTY_MEASURE_WITH_UNIT (LENGTH_MEASURE( 1.000000000000000082E-05 ), #32, 'distance_accuracy_value', 'NONE');
#178 = DIRECTION ( 'NONE',  ( 4.275831445896959482E-31, 1.000000000000000000, 1.224646799147353454E-16 ) ) ;
#179 = PERSON_AND_ORGANIZATION ( #93, #256 ) ;
#180 = AXIS2_PLACEMENT_3D ( 'NONE', #268, #270, #43 ) ;
#181 = DIRECTION ( 'NONE',  ( 0.0000000000000000000, 1.000000000000000000, 0.0000000000000000000 ) ) ;
#182 = DIRECTION ( 'NONE',  ( -3.491481338843133355E-15, 1.224646799147353207E-16, -1.000000000000000000 ) ) ;
#183 = ORIENTED_EDGE ( 'NONE', *, *, #272, .T. ) ;
#184 = CARTESIAN_POINT ( 'NONE',  ( 7.104220552055901835E-14, -2.491825135286219831E-15, 20.34729635533384595 ) ) ;
#185 = CLOSED_SHELL ( 'NONE', ( #95, #82, #287, #251 ) ) ;
#186 = AXIS2_PLACEMENT_3D ( 'NONE', #231, #65, #157 ) ;
#187 = CALENDAR_DATE ( 2021, 1, 12 ) ;
#188 = DIRECTION ( 'NONE',  ( -3.491481338843133355E-15, 1.224646799147353207E-16, -1.000000000000000000 ) ) ;
#189 = PERSON_AND_ORGANIZATION_ROLE ( 'creator' ) ;
#190 = APPROVAL_STATUS ( 'not_yet_approved' ) ;
#191 = DIRECTION ( 'NONE',  ( -3.491481338843133355E-15, 1.224646799147353207E-16, -1.000000000000000000 ) ) ;
#192 = ORIENTED_EDGE ( 'NONE', *, *, #149, .F. ) ;
#193 = EDGE_CURVE ( 'NONE', #196, #196, #130, .T. ) ;
#194 = DIRECTION ( 'NONE',  ( -3.491481338843133355E-15, 1.224646799147353207E-16, -1.000000000000000000 ) ) ;
#195 = CIRCLE ( 'NONE', #208, 1.040384493975581748 ) ;
#196 = VERTEX_POINT ( 'NONE', #282 ) ;
#197 = EDGE_LOOP ( 'NONE', ( #199 ) ) ;
#198 = PLANE ( 'NONE',  #12 ) ;
#199 = ORIENTED_EDGE ( 'NONE', *, *, #46, .T. ) ;
#200 = CYLINDRICAL_SURFACE ( 'NONE', #209, 1.009999999999999565 ) ;
#201 = ADVANCED_FACE ( 'NONE', ( #33, #112 ), #63, .T. ) ;
#202 = DATE_AND_TIME ( #133, #5 ) ;
#203 = FACE_OUTER_BOUND ( 'NONE', #197, .T. ) ;
#204 = CARTESIAN_POINT ( 'NONE',  ( -8.128273020932280719E-31, 2.851014389490836142E-32, -2.328029919708950755E-16 ) ) ;
#205 = EDGE_LOOP ( 'NONE', ( #192 ) ) ;
#206 = DIRECTION ( 'NONE',  ( 0.0000000000000000000, -1.000000000000000000, 0.0000000000000000000 ) ) ;
#207 = CARTESIAN_POINT ( 'NONE',  ( 1.745740669421566678E-13, 1.199999999999995515, 50.00000000000000000 ) ) ;
#208 = AXIS2_PLACEMENT_3D ( 'NONE', #184, #247, #64 ) ;
#209 = AXIS2_PLACEMENT_3D ( 'NONE', #14, #60, #178 ) ;
#210 = MECHANICAL_CONTEXT ( 'NONE', #99, 'mechanical' ) ;
#211 = DIRECTION ( 'NONE',  ( -3.491481338843133355E-15, 1.224646799147353207E-16, -1.000000000000000000 ) ) ;
#212 = CC_DESIGN_PERSON_AND_ORGANIZATION_ASSIGNMENT ( #163, #232, ( #275 ) ) ;
#213 = ORIENTED_EDGE ( 'NONE', *, *, #3, .T. ) ;
#214 = DIRECTION ( 'NONE',  ( 0.0000000000000000000, 1.000000000000000000, 0.0000000000000000000 ) ) ;
#215 = SECURITY_CLASSIFICATION ( '', '', #285 ) ;
#216 = APPROVAL_ROLE ( '' ) ;
#217 = CC_DESIGN_PERSON_AND_ORGANIZATION_ASSIGNMENT ( #57, #174, ( #154 ) ) ;
#218 = PERSON_AND_ORGANIZATION ( #93, #256 ) ;
#219 = AXIS2_PLACEMENT_3D ( 'NONE', #144, #211, #76 ) ;
#220 = DIRECTION ( 'NONE',  ( -3.491481338843133355E-15, 1.224646799147353207E-16, -1.000000000000000000 ) ) ;
#221 = AXIS2_PLACEMENT_3D ( 'NONE', #47, #162, #274 ) ;
#222 = EDGE_LOOP ( 'NONE', ( #44 ) ) ;
#223 = DIRECTION ( 'NONE',  ( -3.491481338843133355E-15, 1.224646799147353207E-16, -1.000000000000000000 ) ) ;
#224 = ADVANCED_FACE ( 'NONE', ( #153, #176 ), #200, .T. ) ;
#225 = CARTESIAN_POINT ( 'NONE',  ( 3.491481338843133355E-14, 1.159999999999999032, 10.00000000000000000 ) ) ;
#226 = EDGE_LOOP ( 'NONE', ( #167 ) ) ;
#227 = DIRECTION ( 'NONE',  ( -3.491481338843133355E-15, 1.224646799147353207E-16, -1.000000000000000000 ) ) ;
#228 = CARTESIAN_POINT ( 'NONE',  ( 8.014313242283776685E-14, 1.499999999999994005, 22.95390541866461120 ) ) ;
#229 = AXIS2_PLACEMENT_3D ( 'NONE', #41, #134, #86 ) ;
#230 = AXIS2_PLACEMENT_3D ( 'NONE', #83, #223, #289 ) ;
#231 = CARTESIAN_POINT ( 'NONE',  ( 8.728703347107829444E-16, -3.061616997868381785E-17, 0.2499999999999998890 ) ) ;
#232 = PERSON_AND_ORGANIZATION_ROLE ( 'design_owner' ) ;
#233 = DIRECTION ( 'NONE',  ( 3.491481338843133355E-15, -1.224646799147353207E-16, 1.000000000000000000 ) ) ;
#234 = EDGE_LOOP ( 'NONE', ( #278 ) ) ;
#235 = ADVANCED_FACE ( 'NONE', ( #175 ), #198, .F. ) ;
#236 = DIRECTION ( 'NONE',  ( -3.491481338843133355E-15, 1.224646799147353207E-16, -1.000000000000000000 ) ) ;
#237 = CARTESIAN_POINT ( 'NONE',  ( 3.491481338843133355E-14, 1.159999999999999032, 10.00000000000000000 ) ) ;
#238 = VERTEX_POINT ( 'NONE', #8 ) ;
#239 = CARTESIAN_POINT ( 'NONE',  ( 3.582192684931459116E-14, -1.256464056309101033E-15, 10.25980762113533729 ) ) ;
#240 = COORDINATED_UNIVERSAL_TIME_OFFSET ( 1, 0, .AHEAD. ) ;
#241 = ADVANCED_FACE ( 'NONE', ( #286, #151 ), #168, .T. ) ;
#242 = EDGE_LOOP ( 'NONE', ( #1 ) ) ;
#243 = DIRECTION ( 'NONE',  ( 3.491481338843133355E-15, -1.224646799147353207E-16, 1.000000000000000000 ) ) ;
#244 = CIRCLE ( 'NONE', #257, 1.160000000000000142 ) ;
#245 = DATE_TIME_ROLE ( 'classification_date' ) ;
#246 = APPROVAL_DATE_TIME ( #202, #90 ) ;
#247 = DIRECTION ( 'NONE',  ( -3.491481338843133355E-15, 1.224646799147353207E-16, -1.000000000000000000 ) ) ;
#248 = FACE_BOUND ( 'NONE', #73, .T. ) ;
#249 = CYLINDRICAL_SURFACE ( 'NONE', #229, 1.499999999999999112 ) ;
#250 = ORIENTED_EDGE ( 'NONE', *, *, #3, .F. ) ;
#251 = ADVANCED_FACE ( 'NONE', ( #109 ), #81, .T. ) ;
#252 = PLANE ( 'NONE',  #221 ) ;
#253 = COORDINATED_UNIVERSAL_TIME_OFFSET ( 1, 0, .AHEAD. ) ;
#254 = EDGE_LOOP ( 'NONE', ( #250 ) ) ;
#255 = FACE_OUTER_BOUND ( 'NONE', #222, .T. ) ;
#256 = ORGANIZATION ( 'UNSPECIFIED', 'UNSPECIFIED', '' ) ;
#257 = AXIS2_PLACEMENT_3D ( 'NONE', #291, #94, #42 ) ;
#258 =( NAMED_UNIT ( * ) PLANE_ANGLE_UNIT ( ) SI_UNIT ( $, .RADIAN. ) );
#259 = CALENDAR_DATE ( 2021, 1, 12 ) ;
#260 = ORIENTED_EDGE ( 'NONE', *, *, #272, .F. ) ;
#261 = CARTESIAN_POINT ( 'NONE',  ( 1.745740669421566678E-13, 8.998558695971067645E-33, 50.00000000000000000 ) ) ;
#262 = ADVANCED_FACE ( 'NONE', ( #132, #114 ), #249, .T. ) ;
#263 = CARTESIAN_POINT ( 'NONE',  ( 3.491481338843133355E-14, 8.698606739438758251E-33, 10.00000000000000000 ) ) ;
#264 = MANIFOLD_SOLID_BREP ( 'Corps-Déplacer/Copier1[1]', #50 ) ;
#265 = APPROVAL_PERSON_ORGANIZATION ( #108, #90, #128 ) ;
#266 = SHAPE_DEFINITION_REPRESENTATION ( #45, #6 ) ;
#267 = CARTESIAN_POINT ( 'NONE',  ( 8.728703347107829444E-16, -3.061616997868381785E-17, 0.2499999999999998890 ) ) ;
#268 = CARTESIAN_POINT ( 'NONE',  ( 0.0000000000000000000, 0.0000000000000000000, 0.0000000000000000000 ) ) ;
#269 = ORIENTED_EDGE ( 'NONE', *, *, #171, .T. ) ;
#270 = DIRECTION ( 'NONE',  ( -3.491481338843133355E-15, 1.224646799147353207E-16, -1.000000000000000000 ) ) ;
#271 = CONICAL_SURFACE ( 'NONE', #23, 1.499999999999996669, 0.1745329251994261199 ) ;
#272 = EDGE_CURVE ( 'NONE', #77, #77, #38, .T. ) ;
#273 = DATE_AND_TIME ( #187, #297 ) ;
#274 = DIRECTION ( 'NONE',  ( -4.275831445896958607E-31, -1.000000000000000000, -1.224646799147353207E-16 ) ) ;
#275 = PRODUCT ( '200702', '200702', '', ( #210 ) ) ;
#276 = DATE_AND_TIME ( #161, #279 ) ;
#277 = DIRECTION ( 'NONE',  ( 0.0000000000000000000, 1.000000000000000000, 0.0000000000000000000 ) ) ;
#278 = ORIENTED_EDGE ( 'NONE', *, *, #149, .T. ) ;
#279 = LOCAL_TIME ( 15, 3, 35.00000000000000000, #24 ) ;
#280 = AXIS2_PLACEMENT_3D ( 'NONE', #53, #236, #214 ) ;
#281 = CC_DESIGN_APPROVAL ( #90, ( #215 ) ) ;
#282 = CARTESIAN_POINT ( 'NONE',  ( 3.582192684931459116E-14, 1.009999999999997788, 10.25980762113533729 ) ) ;
#283 = APPROVAL_STATUS ( 'not_yet_approved' ) ;
#284 = ORIENTED_EDGE ( 'NONE', *, *, #74, .F. ) ;
#285 = SECURITY_CLASSIFICATION_LEVEL ( 'unclassified' ) ;
#286 = FACE_OUTER_BOUND ( 'NONE', #17, .T. ) ;
#287 = ADVANCED_FACE ( 'NONE', ( #295, #292 ), #88, .T. ) ;
#288 = DESIGN_CONTEXT ( 'detailed design', #20, 'design' ) ;
#289 = DIRECTION ( 'NONE',  ( 0.0000000000000000000, 1.000000000000000000, 0.0000000000000000000 ) ) ;
#290 = CALENDAR_DATE ( 2021, 1, 12 ) ;
#291 = CARTESIAN_POINT ( 'NONE',  ( 3.491481338843133355E-14, -1.224646799147353256E-15, 10.00000000000000000 ) ) ;
#292 = FACE_OUTER_BOUND ( 'NONE', #234, .T. ) ;
#293 = ORIENTED_EDGE ( 'NONE', *, *, #46, .F. ) ;
#294 = CC_DESIGN_DATE_AND_TIME_ASSIGNMENT ( #276, #139, ( #160 ) ) ;
#295 = FACE_OUTER_BOUND ( 'NONE', #13, .T. ) ;
#296 = EDGE_CURVE ( 'NONE', #238, #238, #195, .T. ) ;
#297 = LOCAL_TIME ( 15, 3, 35.00000000000000000, #253 ) ;
#298 = AXIS2_PLACEMENT_3D ( 'NONE', #135, #227, #18 ) ;
#299 = CC_DESIGN_APPROVAL ( #147, ( #154 ) ) ;
#300 = FACE_OUTER_BOUND ( 'NONE', #137, .T. ) ;
#301 = PERSON_AND_ORGANIZATION ( #93, #256 ) ;
#302 = EDGE_LOOP ( 'NONE', ( #183 ) ) ;
#303 = PRODUCT_RELATED_PRODUCT_CATEGORY ( 'detail', '', ( #275 ) ) ;
ENDSEC;
END-ISO-10303-21;
