ISO-10303-21;
HEADER;
FILE_DESCRIPTION (( 'STEP AP203' ),
    '1' );
FILE_NAME ('200701.step',
    '2021-12-02T07:16:27',
    ( '' ),
    ( '' ),
    'SwSTEP 2.0',
    'SolidWorks 2019',
    '' );
FILE_SCHEMA (( 'CONFIG_CONTROL_DESIGN' ));
ENDSEC;

DATA;
#1 = ADVANCED_FACE ( 'NONE', ( #151, #182 ), #292, .T. ) ;
#2 = DIRECTION ( 'NONE',  ( 1.000000000000000000, 0.0000000000000000000, 0.0000000000000000000 ) ) ;
#3 = ORIENTED_EDGE ( 'NONE', *, *, #296, .F. ) ;
#4 = AXIS2_PLACEMENT_3D ( 'NONE', #272, #67, #43 ) ;
#5 = CC_DESIGN_PERSON_AND_ORGANIZATION_ASSIGNMENT ( #175, #236, ( #227 ) ) ;
#6 = PERSON_AND_ORGANIZATION_ROLE ( 'creator' ) ;
#7 = APPLICATION_PROTOCOL_DEFINITION ( 'international standard', 'config_control_design', 1994, #173 ) ;
#8 = ORIENTED_EDGE ( 'NONE', *, *, #91, .F. ) ;
#9 = CIRCLE ( 'NONE', #223, 1.475000000000000089 ) ;
#10 =( GEOMETRIC_REPRESENTATION_CONTEXT ( 3 ) GLOBAL_UNCERTAINTY_ASSIGNED_CONTEXT ( ( #24 ) ) GLOBAL_UNIT_ASSIGNED_CONTEXT ( ( #243, #75, #216 ) ) REPRESENTATION_CONTEXT ( 'NONE', 'WORKASPACE' ) );
#11 = APPROVAL_DATE_TIME ( #14, #281 ) ;
#12 = CARTESIAN_POINT ( 'NONE',  ( 3.491481338843133355E-14, -1.224646799147353454E-15, 10.00000000000000000 ) ) ;
#13 = DIRECTION ( 'NONE',  ( -4.275831445896959482E-31, -1.000000000000000000, -1.224646799147353454E-16 ) ) ;
#14 = DATE_AND_TIME ( #63, #265 ) ;
#15 = ORIENTED_EDGE ( 'NONE', *, *, #124, .F. ) ;
#16 = CC_DESIGN_APPROVAL ( #30, ( #132 ) ) ;
#17 = CARTESIAN_POINT ( 'NONE',  ( 9.235322783731657768E-14, -3.239315175585918183E-15, 26.45101573646585180 ) ) ;
#18 = DIRECTION ( 'NONE',  ( 4.275831445896959482E-31, 1.000000000000000000, 1.224646799147353454E-16 ) ) ;
#19 = VERTEX_POINT ( 'NONE', #92 ) ;
#20 = CIRCLE ( 'NONE', #197, 1.305384493975580984 ) ;
#21 = ADVANCED_BREP_SHAPE_REPRESENTATION ( '200701', ( #108, #101, #162 ), #10 ) ;
#22 = DIRECTION ( 'NONE',  ( -3.491481338843133355E-15, 1.224646799147353454E-16, -1.000000000000000000 ) ) ;
#23 = CARTESIAN_POINT ( 'NONE',  ( 9.235322783731657768E-14, 1.499999999999992673, 26.45101573646585180 ) ) ;
#24 = UNCERTAINTY_MEASURE_WITH_UNIT (LENGTH_MEASURE( 1.000000000000000082E-05 ), #243, 'distance_accuracy_value', 'NONE');
#25 = FACE_BOUND ( 'NONE', #143, .T. ) ;
#26 = CLOSED_SHELL ( 'NONE', ( #48, #159, #1, #273, #37, #194, #141, #204 ) ) ;
#27 = CARTESIAN_POINT ( 'NONE',  ( 2.129803616694311221E-13, 1.199999999999995515, 61.00000000000000000 ) ) ;
#28 = ORIENTED_EDGE ( 'NONE', *, *, #84, .T. ) ;
#29 = PERSON_AND_ORGANIZATION_ROLE ( 'classification_officer' ) ;
#30 = APPROVAL ( #262, 'UNSPECIFIED' ) ;
#31 = EDGE_LOOP ( 'NONE', ( #15 ) ) ;
#32 = CIRCLE ( 'NONE', #277, 1.499999999999996003 ) ;
#33 = ORGANIZATION ( 'UNSPECIFIED', 'UNSPECIFIED', '' ) ;
#34 = EDGE_LOOP ( 'NONE', ( #167 ) ) ;
#35 = PERSON_AND_ORGANIZATION ( #157, #33 ) ;
#36 = FACE_OUTER_BOUND ( 'NONE', #288, .T. ) ;
#37 = ADVANCED_FACE ( 'NONE', ( #152, #58 ), #237, .T. ) ;
#38 = CARTESIAN_POINT ( 'NONE',  ( 3.491481338843133355E-14, 1.106072839713118617E-32, 10.00000000000000000 ) ) ;
#39 = EDGE_LOOP ( 'NONE', ( #86 ) ) ;
#40 = FACE_BOUND ( 'NONE', #241, .T. ) ;
#41 = SECURITY_CLASSIFICATION ( '', '', #53 ) ;
#42 = DIRECTION ( 'NONE',  ( -3.491481338843133355E-15, 1.224646799147353454E-16, -1.000000000000000000 ) ) ;
#43 = DIRECTION ( 'NONE',  ( 0.0000000000000000000, 1.000000000000000000, 0.0000000000000000000 ) ) ;
#44 = CARTESIAN_POINT ( 'NONE',  ( 6.118521437075186445E-31, -2.146088426728160741E-32, 1.752414188501003398E-16 ) ) ;
#45 = CARTESIAN_POINT ( 'NONE',  ( 8.728703347107833388E-16, 1.474999999999998979, 0.2500000000000000000 ) ) ;
#46 = PLANE ( 'NONE',  #278 ) ;
#47 = MECHANICAL_CONTEXT ( 'NONE', #264, 'mechanical' ) ;
#48 = ADVANCED_FACE ( 'NONE', ( #184 ), #206, .F. ) ;
#49 = CIRCLE ( 'NONE', #154, 1.474999999999998979 ) ;
#50 = AXIS2_PLACEMENT_3D ( 'NONE', #186, #72, #231 ) ;
#51 = DIRECTION ( 'NONE',  ( 0.0000000000000000000, 0.0000000000000000000, 1.000000000000000000 ) ) ;
#52 = ORIENTED_EDGE ( 'NONE', *, *, #254, .F. ) ;
#53 = SECURITY_CLASSIFICATION_LEVEL ( 'unclassified' ) ;
#54 = DATE_AND_TIME ( #120, #169 ) ;
#55 = CALENDAR_DATE ( 2021, 2, 12 ) ;
#56 = AXIS2_PLACEMENT_3D ( 'NONE', #211, #213, #68 ) ;
#57 = EDGE_LOOP ( 'NONE', ( #179 ) ) ;
#58 = FACE_OUTER_BOUND ( 'NONE', #266, .T. ) ;
#59 = EDGE_CURVE ( 'NONE', #19, #19, #246, .T. ) ;
#60 = APPROVAL_STATUS ( 'not_yet_approved' ) ;
#61 = EDGE_LOOP ( 'NONE', ( #85 ) ) ;
#62 = DIRECTION ( 'NONE',  ( 4.275831445896959482E-31, 1.000000000000000000, 1.224646799147353454E-16 ) ) ;
#63 = CALENDAR_DATE ( 2021, 2, 12 ) ;
#64 = EDGE_LOOP ( 'NONE', ( #105 ) ) ;
#65 = CIRCLE ( 'NONE', #106, 1.274999999999998357 ) ;
#66 = PRODUCT ( '200701', '200701', '', ( #47 ) ) ;
#67 = DIRECTION ( 'NONE',  ( -3.491481338843133355E-15, 1.224646799147353454E-16, -1.000000000000000000 ) ) ;
#68 = DIRECTION ( 'NONE',  ( -4.275831445896959482E-31, -1.000000000000000000, -1.224646799147353454E-16 ) ) ;
#69 = CARTESIAN_POINT ( 'NONE',  ( 8.728703347107833388E-14, 1.274999999999997025, 25.00000000000000000 ) ) ;
#70 = DESIGN_CONTEXT ( 'detailed design', #173, 'design' ) ;
#71 = PLANE ( 'NONE',  #56 ) ;
#72 = DIRECTION ( 'NONE',  ( 3.491481338843133355E-15, -1.224646799147353454E-16, 1.000000000000000000 ) ) ;
#73 = CLOSED_SHELL ( 'NONE', ( #235, #185, #180, #294 ) ) ;
#74 = COORDINATED_UNIVERSAL_TIME_OFFSET ( 1, 0, .AHEAD. ) ;
#75 =( NAMED_UNIT ( * ) PLANE_ANGLE_UNIT ( ) SI_UNIT ( $, .RADIAN. ) );
#76 = AXIS2_PLACEMENT_3D ( 'NONE', #287, #250, #153 ) ;
#77 = APPROVAL_ROLE ( '' ) ;
#78 = ORIENTED_EDGE ( 'NONE', *, *, #218, .F. ) ;
#79 = CARTESIAN_POINT ( 'NONE',  ( 3.612429800294234159E-14, -1.267069808696350687E-15, 10.34641016151378423 ) ) ;
#80 = SHAPE_DEFINITION_REPRESENTATION ( #268, #21 ) ;
#81 = EDGE_LOOP ( 'NONE', ( #122 ) ) ;
#82 = CARTESIAN_POINT ( 'NONE',  ( 8.849961221477468513E-14, -3.104148534859897150E-15, 25.34729635533384240 ) ) ;
#83 = CONICAL_SURFACE ( 'NONE', #242, 1.474999999999998979, 0.7853981633974432830 ) ;
#84 = EDGE_CURVE ( 'NONE', #158, #158, #9, .T. ) ;
#85 = ORIENTED_EDGE ( 'NONE', *, *, #254, .T. ) ;
#86 = ORIENTED_EDGE ( 'NONE', *, *, #168, .F. ) ;
#87 = CC_DESIGN_DATE_AND_TIME_ASSIGNMENT ( #261, #142, ( #41 ) ) ;
#88 = CARTESIAN_POINT ( 'NONE',  ( 2.129803616694311221E-13, 8.998558695971062171E-33, 61.00000000000000000 ) ) ;
#89 = CIRCLE ( 'NONE', #238, 1.200000000000002842 ) ;
#90 = CARTESIAN_POINT ( 'NONE',  ( 3.491481338843133355E-14, 1.474999999999998979, 10.00000000000000000 ) ) ;
#91 = EDGE_CURVE ( 'NONE', #133, #133, #20, .T. ) ;
#92 = CARTESIAN_POINT ( 'NONE',  ( 2.119329172677781757E-13, 1.499999999999995559, 60.69999999999999574 ) ) ;
#93 = APPROVAL_PERSON_ORGANIZATION ( #35, #281, #104 ) ;
#94 = FACE_OUTER_BOUND ( 'NONE', #31, .T. ) ;
#95 = COORDINATED_UNIVERSAL_TIME_OFFSET ( 1, 0, .AHEAD. ) ;
#96 = ORIENTED_EDGE ( 'NONE', *, *, #168, .T. ) ;
#97 = CARTESIAN_POINT ( 'NONE',  ( 0.0000000000000000000, 0.0000000000000000000, 0.0000000000000000000 ) ) ;
#98 = AXIS2_PLACEMENT_3D ( 'NONE', #17, #149, #245 ) ;
#99 = AXIS2_PLACEMENT_3D ( 'NONE', #44, #276, #136 ) ;
#100 = ORIENTED_EDGE ( 'NONE', *, *, #118, .F. ) ;
#101 = MANIFOLD_SOLID_BREP ( 'Corps-Déplacer/Copier1[2]', #73 ) ;
#102 = FACE_BOUND ( 'NONE', #81, .T. ) ;
#103 = DIRECTION ( 'NONE',  ( 0.0000000000000000000, 1.000000000000000000, 0.0000000000000000000 ) ) ;
#104 = APPROVAL_ROLE ( '' ) ;
#105 = ORIENTED_EDGE ( 'NONE', *, *, #124, .T. ) ;
#106 = AXIS2_PLACEMENT_3D ( 'NONE', #109, #22, #114 ) ;
#107 = CARTESIAN_POINT ( 'NONE',  ( 2.119329172677781757E-13, -7.433606070824434221E-15, 60.69999999999999574 ) ) ;
#108 = MANIFOLD_SOLID_BREP ( 'Corps-Déplacer/Copier1[1]', #26 ) ;
#109 = CARTESIAN_POINT ( 'NONE',  ( 3.612429800294234159E-14, -1.267069808696350687E-15, 10.34641016151378423 ) ) ;
#110 = CYLINDRICAL_SURFACE ( 'NONE', #290, 1.474999999999999423 ) ;
#111 = CIRCLE ( 'NONE', #4, 1.475000000000000089 ) ;
#112 = CARTESIAN_POINT ( 'NONE',  ( 0.0000000000000000000, 0.0000000000000000000, 0.0000000000000000000 ) ) ;
#113 = VERTEX_POINT ( 'NONE', #190 ) ;
#114 = DIRECTION ( 'NONE',  ( 0.0000000000000000000, 1.000000000000000000, 0.0000000000000000000 ) ) ;
#115 = PERSON_AND_ORGANIZATION ( #157, #33 ) ;
#116 = VERTEX_POINT ( 'NONE', #240 ) ;
#117 = VERTEX_POINT ( 'NONE', #27 ) ;
#118 = EDGE_CURVE ( 'NONE', #189, #189, #145, .T. ) ;
#119 = ORIENTED_EDGE ( 'NONE', *, *, #118, .T. ) ;
#120 = CALENDAR_DATE ( 2021, 2, 12 ) ;
#121 = PERSON_AND_ORGANIZATION_ROLE ( 'design_owner' ) ;
#122 = ORIENTED_EDGE ( 'NONE', *, *, #218, .T. ) ;
#123 = PRODUCT_RELATED_PRODUCT_CATEGORY ( 'detail', '', ( #66 ) ) ;
#124 = EDGE_CURVE ( 'NONE', #160, #160, #49, .T. ) ;
#125 = ORIENTED_EDGE ( 'NONE', *, *, #296, .T. ) ;
#126 = CARTESIAN_POINT ( 'NONE',  ( 9.235322783731657768E-14, -3.239315175585918183E-15, 26.45101573646585180 ) ) ;
#127 = EDGE_LOOP ( 'NONE', ( #119 ) ) ;
#128 = ORIENTED_EDGE ( 'NONE', *, *, #59, .T. ) ;
#129 = EDGE_LOOP ( 'NONE', ( #3 ) ) ;
#130 = DIRECTION ( 'NONE',  ( 4.275831445896959482E-31, 1.000000000000000000, 1.224646799147353454E-16 ) ) ;
#131 = FACE_OUTER_BOUND ( 'NONE', #148, .T. ) ;
#132 = PRODUCT_DEFINITION ( 'UNKNOWN', '', #227, #70 ) ;
#133 = VERTEX_POINT ( 'NONE', #232 ) ;
#134 = CIRCLE ( 'NONE', #99, 1.225000000000001643 ) ;
#135 = DIRECTION ( 'NONE',  ( -3.917145649601160258E-31, -1.000000000000000000, -1.102578480493734052E-16 ) ) ;
#136 = DIRECTION ( 'NONE',  ( 4.275831445896959482E-31, 1.000000000000000000, 1.224646799147353454E-16 ) ) ;
#137 = APPROVAL_STATUS ( 'not_yet_approved' ) ;
#138 = AXIS2_PLACEMENT_3D ( 'NONE', #107, #226, #271 ) ;
#139 = APPLICATION_PROTOCOL_DEFINITION ( 'international standard', 'config_control_design', 1994, #264 ) ;
#140 = EDGE_LOOP ( 'NONE', ( #8 ) ) ;
#141 = ADVANCED_FACE ( 'NONE', ( #205, #102 ), #161, .T. ) ;
#142 = DATE_TIME_ROLE ( 'classification_date' ) ;
#143 = EDGE_LOOP ( 'NONE', ( #52 ) ) ;
#144 = APPROVAL_ROLE ( '' ) ;
#145 = CIRCLE ( 'NONE', #76, 1.275000000000000133 ) ;
#146 = APPROVAL_PERSON_ORGANIZATION ( #239, #30, #144 ) ;
#147 = DATE_AND_TIME ( #55, #210 ) ;
#148 = EDGE_LOOP ( 'NONE', ( #125 ) ) ;
#149 = DIRECTION ( 'NONE',  ( 3.491481338843133355E-15, -1.224646799147353454E-16, 1.000000000000000000 ) ) ;
#150 = AXIS2_PLACEMENT_3D ( 'NONE', #79, #289, #178 ) ;
#151 = FACE_OUTER_BOUND ( 'NONE', #34, .T. ) ;
#152 = FACE_BOUND ( 'NONE', #140, .T. ) ;
#153 = DIRECTION ( 'NONE',  ( 0.0000000000000000000, 1.000000000000000000, 0.0000000000000000000 ) ) ;
#154 = AXIS2_PLACEMENT_3D ( 'NONE', #155, #183, #252 ) ;
#155 = CARTESIAN_POINT ( 'NONE',  ( 8.728703347107827472E-16, -3.061616997868381785E-17, 0.2499999999999998335 ) ) ;
#156 = FACE_OUTER_BOUND ( 'NONE', #39, .T. ) ;
#157 = PERSON ( 'UNSPECIFIED', 'UNSPECIFIED', 'UNSPECIFIED', ('UNSPECIFIED'), ('UNSPECIFIED'), ('UNSPECIFIED') ) ;
#158 = VERTEX_POINT ( 'NONE', #90 ) ;
#159 = ADVANCED_FACE ( 'NONE', ( #36, #40 ), #300, .T. ) ;
#160 = VERTEX_POINT ( 'NONE', #45 ) ;
#161 = CONICAL_SURFACE ( 'NONE', #196, 1.200000000000002842, 0.7853981633974453924 ) ;
#162 = AXIS2_PLACEMENT_3D ( 'NONE', #97, #51, #2 ) ;
#163 = CARTESIAN_POINT ( 'NONE',  ( 8.728703347107833388E-14, -3.035766082959412415E-15, 25.00000000000000000 ) ) ;
#164 = CC_DESIGN_PERSON_AND_ORGANIZATION_ASSIGNMENT ( #115, #215, ( #227 ) ) ;
#165 = CARTESIAN_POINT ( 'NONE',  ( 8.728703347107827472E-16, -3.061616997868381785E-17, 0.2499999999999998335 ) ) ;
#166 = APPROVAL_DATE_TIME ( #54, #30 ) ;
#167 = ORIENTED_EDGE ( 'NONE', *, *, #199, .F. ) ;
#168 = EDGE_CURVE ( 'NONE', #233, #233, #32, .T. ) ;
#169 = LOCAL_TIME ( 8, 16, 26.00000000000000000, #95 ) ;
#170 = COORDINATED_UNIVERSAL_TIME_OFFSET ( 1, 0, .AHEAD. ) ;
#171 = CC_DESIGN_DATE_AND_TIME_ASSIGNMENT ( #172, #282, ( #132 ) ) ;
#172 = DATE_AND_TIME ( #195, #283 ) ;
#173 = APPLICATION_CONTEXT ( 'configuration controlled 3d designs of mechanical parts and assemblies' ) ;
#174 = TOROIDAL_SURFACE ( 'NONE', #181, 3.275000000000000355, 2.000000000000000000 ) ;
#175 = PERSON_AND_ORGANIZATION ( #157, #33 ) ;
#176 = APPROVAL ( #137, 'UNSPECIFIED' ) ;
#177 = EDGE_LOOP ( 'NONE', ( #128 ) ) ;
#178 = DIRECTION ( 'NONE',  ( 0.0000000000000000000, 1.000000000000000000, 0.0000000000000000000 ) ) ;
#179 = ORIENTED_EDGE ( 'NONE', *, *, #59, .F. ) ;
#180 = ADVANCED_FACE ( 'NONE', ( #94, #131 ), #110, .T. ) ;
#181 = AXIS2_PLACEMENT_3D ( 'NONE', #163, #253, #130 ) ;
#182 = FACE_OUTER_BOUND ( 'NONE', #127, .T. ) ;
#183 = DIRECTION ( 'NONE',  ( -3.491481338843133355E-15, 1.224646799147353454E-16, -1.000000000000000000 ) ) ;
#184 = FACE_OUTER_BOUND ( 'NONE', #244, .T. ) ;
#185 = ADVANCED_FACE ( 'NONE', ( #25, #293 ), #83, .T. ) ;
#186 = CARTESIAN_POINT ( 'NONE',  ( 3.491481338843133355E-14, 1.106072839713118617E-32, 10.00000000000000000 ) ) ;
#187 = CC_DESIGN_APPROVAL ( #176, ( #227 ) ) ;
#188 = DIRECTION ( 'NONE',  ( 4.275831445896960358E-31, 1.000000000000000000, 1.224646799147353454E-16 ) ) ;
#189 = VERTEX_POINT ( 'NONE', #69 ) ;
#190 = CARTESIAN_POINT ( 'NONE',  ( 3.612429800294234159E-14, 1.274999999999997025, 10.34641016151378423 ) ) ;
#191 = AXIS2_PLACEMENT_3D ( 'NONE', #112, #234, #188 ) ;
#192 = CARTESIAN_POINT ( 'NONE',  ( 2.129803616694311221E-13, -7.470345474798856659E-15, 61.00000000000000000 ) ) ;
#193 = CALENDAR_DATE ( 2021, 2, 12 ) ;
#194 = ADVANCED_FACE ( 'NONE', ( #156, #259 ), #279, .T. ) ;
#195 = CALENDAR_DATE ( 2021, 2, 12 ) ;
#196 = AXIS2_PLACEMENT_3D ( 'NONE', #222, #207, #251 ) ;
#197 = AXIS2_PLACEMENT_3D ( 'NONE', #82, #202, #103 ) ;
#198 = CARTESIAN_POINT ( 'NONE',  ( 1.135641495829896858E-30, 1.225000000000001643, 3.252606517456513302E-16 ) ) ;
#199 = EDGE_CURVE ( 'NONE', #113, #113, #65, .T. ) ;
#200 = PERSON_AND_ORGANIZATION ( #157, #33 ) ;
#201 = LOCAL_TIME ( 8, 16, 26.00000000000000000, #170 ) ;
#202 = DIRECTION ( 'NONE',  ( -3.491481338843133355E-15, 1.224646799147353454E-16, -1.000000000000000000 ) ) ;
#203 = DIRECTION ( 'NONE',  ( 0.0000000000000000000, 1.000000000000000000, 0.0000000000000000000 ) ) ;
#204 = ADVANCED_FACE ( 'NONE', ( #230 ), #46, .F. ) ;
#205 = FACE_OUTER_BOUND ( 'NONE', #57, .T. ) ;
#206 = PLANE ( 'NONE',  #286 ) ;
#207 = DIRECTION ( 'NONE',  ( -3.491481338843133355E-15, 1.224646799147353454E-16, -1.000000000000000000 ) ) ;
#208 = FACE_OUTER_BOUND ( 'NONE', #129, .T. ) ;
#209 = DIRECTION ( 'NONE',  ( -3.491481338843133355E-15, 1.224646799147353454E-16, -1.000000000000000000 ) ) ;
#210 = LOCAL_TIME ( 8, 16, 26.00000000000000000, #74 ) ;
#211 = CARTESIAN_POINT ( 'NONE',  ( 3.059260718537593222E-31, -1.073044213364080370E-32, 8.762070942505016992E-17 ) ) ;
#212 = CARTESIAN_POINT ( 'NONE',  ( 0.0000000000000000000, 0.0000000000000000000, 0.0000000000000000000 ) ) ;
#213 = DIRECTION ( 'NONE',  ( 3.491481338843133355E-15, -1.224646799147353454E-16, 1.000000000000000000 ) ) ;
#214 = CC_DESIGN_SECURITY_CLASSIFICATION ( #41, ( #227 ) ) ;
#215 = PERSON_AND_ORGANIZATION_ROLE ( 'design_supplier' ) ;
#216 =( NAMED_UNIT ( * ) SI_UNIT ( $, .STERADIAN. ) SOLID_ANGLE_UNIT ( ) );
#217 = VERTEX_POINT ( 'NONE', #198 ) ;
#218 = EDGE_CURVE ( 'NONE', #117, #117, #89, .T. ) ;
#219 = PERSON_AND_ORGANIZATION ( #157, #33 ) ;
#220 = ORIENTED_EDGE ( 'NONE', *, *, #91, .T. ) ;
#221 = ORIENTED_EDGE ( 'NONE', *, *, #199, .T. ) ;
#222 = CARTESIAN_POINT ( 'NONE',  ( 2.129803616694311221E-13, -7.470345474798856659E-15, 61.00000000000000000 ) ) ;
#223 = AXIS2_PLACEMENT_3D ( 'NONE', #12, #225, #291 ) ;
#224 = DIRECTION ( 'NONE',  ( -3.491481338843133355E-15, 1.224646799147353454E-16, -1.000000000000000000 ) ) ;
#225 = DIRECTION ( 'NONE',  ( -3.491481338843133355E-15, 1.224646799147353454E-16, -1.000000000000000000 ) ) ;
#226 = DIRECTION ( 'NONE',  ( -3.491481338843133355E-15, 1.224646799147353454E-16, -1.000000000000000000 ) ) ;
#227 = PRODUCT_DEFINITION_FORMATION_WITH_SPECIFIED_SOURCE ( 'ANY', '', #66, .NOT_KNOWN. ) ;
#228 = EDGE_LOOP ( 'NONE', ( #220 ) ) ;
#229 = CC_DESIGN_PERSON_AND_ORGANIZATION_ASSIGNMENT ( #200, #121, ( #66 ) ) ;
#230 = FACE_OUTER_BOUND ( 'NONE', #269, .T. ) ;
#231 = DIRECTION ( 'NONE',  ( -4.275831445896959482E-31, -1.000000000000000000, -1.224646799147353454E-16 ) ) ;
#232 = CARTESIAN_POINT ( 'NONE',  ( 8.849961221477468513E-14, 1.305384493975578097, 25.34729635533384240 ) ) ;
#233 = VERTEX_POINT ( 'NONE', #23 ) ;
#234 = DIRECTION ( 'NONE',  ( -3.491481338843133355E-15, 1.224646799147353454E-16, -1.000000000000000000 ) ) ;
#235 = ADVANCED_FACE ( 'NONE', ( #280 ), #71, .F. ) ;
#236 = PERSON_AND_ORGANIZATION_ROLE ( 'creator' ) ;
#237 = CONICAL_SURFACE ( 'NONE', #98, 1.499999999999996003, 0.1745329251994263420 ) ;
#238 = AXIS2_PLACEMENT_3D ( 'NONE', #192, #209, #255 ) ;
#239 = PERSON_AND_ORGANIZATION ( #157, #33 ) ;
#240 = CARTESIAN_POINT ( 'NONE',  ( 3.491481338843133355E-14, 1.474999999999998979, 10.00000000000000000 ) ) ;
#241 = EDGE_LOOP ( 'NONE', ( #221 ) ) ;
#242 = AXIS2_PLACEMENT_3D ( 'NONE', #165, #274, #135 ) ;
#243 =( LENGTH_UNIT ( ) NAMED_UNIT ( * ) SI_UNIT ( .MILLI., .METRE. ) );
#244 = EDGE_LOOP ( 'NONE', ( #28 ) ) ;
#245 = DIRECTION ( 'NONE',  ( 0.0000000000000000000, -1.000000000000000000, 0.0000000000000000000 ) ) ;
#246 = CIRCLE ( 'NONE', #138, 1.500000000000002887 ) ;
#247 = CC_DESIGN_APPROVAL ( #281, ( #41 ) ) ;
#248 = COORDINATED_UNIVERSAL_TIME_OFFSET ( 1, 0, .AHEAD. ) ;
#249 = DIRECTION ( 'NONE',  ( 3.491481338843133355E-15, -1.224646799147353454E-16, 1.000000000000000000 ) ) ;
#250 = DIRECTION ( 'NONE',  ( -3.491481338843133355E-15, 1.224646799147353454E-16, -1.000000000000000000 ) ) ;
#251 = DIRECTION ( 'NONE',  ( 0.0000000000000000000, 1.000000000000000000, 0.0000000000000000000 ) ) ;
#252 = DIRECTION ( 'NONE',  ( 3.917145649601160258E-31, 1.000000000000000000, 1.102578480493734052E-16 ) ) ;
#253 = DIRECTION ( 'NONE',  ( -3.491481338843133355E-15, 1.224646799147353454E-16, -1.000000000000000000 ) ) ;
#254 = EDGE_CURVE ( 'NONE', #217, #217, #134, .T. ) ;
#255 = DIRECTION ( 'NONE',  ( 0.0000000000000000000, 1.000000000000000000, 0.0000000000000000000 ) ) ;
#256 = AXIS2_PLACEMENT_3D ( 'NONE', #267, #42, #62 ) ;
#257 = DIRECTION ( 'NONE',  ( 4.275831445896959482E-31, 1.000000000000000000, 1.224646799147353454E-16 ) ) ;
#258 = DIRECTION ( 'NONE',  ( -3.491481338843133355E-15, 1.224646799147353454E-16, -1.000000000000000000 ) ) ;
#259 = FACE_OUTER_BOUND ( 'NONE', #177, .T. ) ;
#260 = ORIENTED_EDGE ( 'NONE', *, *, #84, .F. ) ;
#261 = DATE_AND_TIME ( #193, #201 ) ;
#262 = APPROVAL_STATUS ( 'not_yet_approved' ) ;
#263 = PERSON_AND_ORGANIZATION ( #157, #33 ) ;
#264 = APPLICATION_CONTEXT ( 'configuration controlled 3d designs of mechanical parts and assemblies' ) ;
#265 = LOCAL_TIME ( 8, 16, 26.00000000000000000, #248 ) ;
#266 = EDGE_LOOP ( 'NONE', ( #96 ) ) ;
#267 = CARTESIAN_POINT ( 'NONE',  ( 0.0000000000000000000, 0.0000000000000000000, 0.0000000000000000000 ) ) ;
#268 = PRODUCT_DEFINITION_SHAPE ( 'NONE', 'NONE',  #132 ) ;
#269 = EDGE_LOOP ( 'NONE', ( #78 ) ) ;
#270 = EDGE_LOOP ( 'NONE', ( #100 ) ) ;
#271 = DIRECTION ( 'NONE',  ( 0.0000000000000000000, 1.000000000000000000, 0.0000000000000000000 ) ) ;
#272 = CARTESIAN_POINT ( 'NONE',  ( 3.491481338843133355E-14, -1.224646799147353454E-15, 10.00000000000000000 ) ) ;
#273 = ADVANCED_FACE ( 'NONE', ( #302, #299 ), #174, .F. ) ;
#274 = DIRECTION ( 'NONE',  ( 3.491481338843133355E-15, -1.224646799147353454E-16, 1.000000000000000000 ) ) ;
#275 = CC_DESIGN_PERSON_AND_ORGANIZATION_ASSIGNMENT ( #219, #6, ( #132 ) ) ;
#276 = DIRECTION ( 'NONE',  ( -3.491481338843133355E-15, 1.224646799147353454E-16, -1.000000000000000000 ) ) ;
#277 = AXIS2_PLACEMENT_3D ( 'NONE', #126, #224, #203 ) ;
#278 = AXIS2_PLACEMENT_3D ( 'NONE', #88, #297, #257 ) ;
#279 = CYLINDRICAL_SURFACE ( 'NONE', #191, 1.499999999999999334 ) ;
#280 = FACE_OUTER_BOUND ( 'NONE', #61, .T. ) ;
#281 = APPROVAL ( #60, 'UNSPECIFIED' ) ;
#282 = DATE_TIME_ROLE ( 'creation_date' ) ;
#283 = LOCAL_TIME ( 8, 16, 26.00000000000000000, #284 ) ;
#284 = COORDINATED_UNIVERSAL_TIME_OFFSET ( 1, 0, .AHEAD. ) ;
#285 = APPROVAL_DATE_TIME ( #147, #176 ) ;
#286 = AXIS2_PLACEMENT_3D ( 'NONE', #38, #249, #13 ) ;
#287 = CARTESIAN_POINT ( 'NONE',  ( 8.728703347107833388E-14, -3.061616997868383831E-15, 25.00000000000000000 ) ) ;
#288 = EDGE_LOOP ( 'NONE', ( #260 ) ) ;
#289 = DIRECTION ( 'NONE',  ( -3.491481338843133355E-15, 1.224646799147353454E-16, -1.000000000000000000 ) ) ;
#290 = AXIS2_PLACEMENT_3D ( 'NONE', #212, #258, #18 ) ;
#291 = DIRECTION ( 'NONE',  ( 0.0000000000000000000, 1.000000000000000000, 0.0000000000000000000 ) ) ;
#292 = CYLINDRICAL_SURFACE ( 'NONE', #256, 1.274999999999999245 ) ;
#293 = FACE_OUTER_BOUND ( 'NONE', #64, .T. ) ;
#294 = ADVANCED_FACE ( 'NONE', ( #208 ), #295, .T. ) ;
#295 = PLANE ( 'NONE',  #50 ) ;
#296 = EDGE_CURVE ( 'NONE', #116, #116, #111, .T. ) ;
#297 = DIRECTION ( 'NONE',  ( -3.491481338843133355E-15, 1.224646799147353454E-16, -1.000000000000000000 ) ) ;
#298 = CC_DESIGN_PERSON_AND_ORGANIZATION_ASSIGNMENT ( #303, #29, ( #41 ) ) ;
#299 = FACE_OUTER_BOUND ( 'NONE', #228, .T. ) ;
#300 = CONICAL_SURFACE ( 'NONE', #150, 1.274999999999998357, 0.5235987755982929315 ) ;
#301 = APPROVAL_PERSON_ORGANIZATION ( #263, #176, #77 ) ;
#302 = FACE_OUTER_BOUND ( 'NONE', #270, .T. ) ;
#303 = PERSON_AND_ORGANIZATION ( #157, #33 ) ;
ENDSEC;
END-ISO-10303-21;
