ISO-10303-21;
HEADER;
FILE_DESCRIPTION (( 'STEP AP203' ),
    '1' );
FILE_NAME ('200700.step',
    '2021-12-02T07:16:26',
    ( '' ),
    ( '' ),
    'SwSTEP 2.0',
    'SolidWorks 2019',
    '' );
FILE_SCHEMA (( 'CONFIG_CONTROL_DESIGN' ));
ENDSEC;

DATA;
#1 = CC_DESIGN_PERSON_AND_ORGANIZATION_ASSIGNMENT ( #66, #275, ( #182 ) ) ;
#2 = DIRECTION ( 'NONE',  ( -3.491481338843133355E-15, 1.224646799147353454E-16, -1.000000000000000000 ) ) ;
#3 = AXIS2_PLACEMENT_3D ( 'NONE', #249, #43, #155 ) ;
#4 = FACE_OUTER_BOUND ( 'NONE', #297, .T. ) ;
#5 = ADVANCED_FACE ( 'NONE', ( #172 ), #133, .T. ) ;
#6 = FACE_BOUND ( 'NONE', #110, .T. ) ;
#7 = DIRECTION ( 'NONE',  ( -3.491481338843133355E-15, 1.224646799147353454E-16, -1.000000000000000000 ) ) ;
#8 = AXIS2_PLACEMENT_3D ( 'NONE', #257, #211, #118 ) ;
#9 = VERTEX_POINT ( 'NONE', #11 ) ;
#10 = ADVANCED_FACE ( 'NONE', ( #206, #15 ), #85, .T. ) ;
#11 = CARTESIAN_POINT ( 'NONE',  ( 8.849961221477469775E-14, 1.280384493975577742, 25.34729635533384595 ) ) ;
#12 = COORDINATED_UNIVERSAL_TIME_OFFSET ( 1, 0, .AHEAD. ) ;
#13 = ORIENTED_EDGE ( 'NONE', *, *, #227, .F. ) ;
#14 = LOCAL_TIME ( 8, 16, 26.00000000000000000, #35 ) ;
#15 = FACE_OUTER_BOUND ( 'NONE', #44, .T. ) ;
#16 = AXIS2_PLACEMENT_3D ( 'NONE', #134, #244, #300 ) ;
#17 = CC_DESIGN_APPROVAL ( #169, ( #149 ) ) ;
#18 = ORIENTED_EDGE ( 'NONE', *, *, #94, .T. ) ;
#19 = EDGE_LOOP ( 'NONE', ( #18 ) ) ;
#20 = UNCERTAINTY_MEASURE_WITH_UNIT (LENGTH_MEASURE( 1.000000000000000082E-05 ), #102, 'distance_accuracy_value', 'NONE');
#21 = FACE_OUTER_BOUND ( 'NONE', #61, .T. ) ;
#22 = ADVANCED_FACE ( 'NONE', ( #21, #41 ), #162, .F. ) ;
#23 = CIRCLE ( 'NONE', #31, 1.280384493975580851 ) ;
#24 = ORIENTED_EDGE ( 'NONE', *, *, #227, .T. ) ;
#25 = DIRECTION ( 'NONE',  ( -3.491481338843133355E-15, 1.224646799147353454E-16, -1.000000000000000000 ) ) ;
#26 = DIRECTION ( 'NONE',  ( -3.491481338843133355E-15, 1.224646799147353454E-16, -1.000000000000000000 ) ) ;
#27 = FACE_OUTER_BOUND ( 'NONE', #221, .T. ) ;
#28 = FACE_OUTER_BOUND ( 'NONE', #173, .T. ) ;
#29 = FACE_BOUND ( 'NONE', #271, .T. ) ;
#30 = EDGE_CURVE ( 'NONE', #142, #142, #100, .T. ) ;
#31 = AXIS2_PLACEMENT_3D ( 'NONE', #136, #25, #232 ) ;
#32 = ADVANCED_FACE ( 'NONE', ( #301 ), #91, .F. ) ;
#33 = VERTEX_POINT ( 'NONE', #219 ) ;
#34 = PERSON_AND_ORGANIZATION ( #236, #171 ) ;
#35 = COORDINATED_UNIVERSAL_TIME_OFFSET ( 1, 0, .AHEAD. ) ;
#36 = CARTESIAN_POINT ( 'NONE',  ( 9.284825720332949933E-14, 1.499999999999992673, 26.59279778195630328 ) ) ;
#37 = SECURITY_CLASSIFICATION_LEVEL ( 'unclassified' ) ;
#38 = EDGE_LOOP ( 'NONE', ( #197 ) ) ;
#39 = EDGE_CURVE ( 'NONE', #214, #214, #263, .T. ) ;
#40 = CC_DESIGN_SECURITY_CLASSIFICATION ( #262, ( #182 ) ) ;
#41 = FACE_OUTER_BOUND ( 'NONE', #38, .T. ) ;
#42 = PERSON_AND_ORGANIZATION ( #236, #171 ) ;
#43 = DIRECTION ( 'NONE',  ( -3.491481338843133355E-15, 1.224646799147353454E-16, -1.000000000000000000 ) ) ;
#44 = EDGE_LOOP ( 'NONE', ( #225 ) ) ;
#45 = ORIENTED_EDGE ( 'NONE', *, *, #79, .F. ) ;
#46 = LOCAL_TIME ( 8, 16, 26.00000000000000000, #12 ) ;
#47 = APPROVAL ( #266, 'UNSPECIFIED' ) ;
#48 = CC_DESIGN_APPROVAL ( #47, ( #182 ) ) ;
#49 = CARTESIAN_POINT ( 'NONE',  ( 8.728703347107827472E-16, -3.061616997868381785E-17, 0.2499999999999998335 ) ) ;
#50 = DIRECTION ( 'NONE',  ( -3.491481338843133355E-15, 1.224646799147353454E-16, -1.000000000000000000 ) ) ;
#51 = DIRECTION ( 'NONE',  ( -3.491481338843133355E-15, 1.224646799147353454E-16, -1.000000000000000000 ) ) ;
#52 = CARTESIAN_POINT ( 'NONE',  ( 0.0000000000000000000, 0.0000000000000000000, 0.0000000000000000000 ) ) ;
#53 = FACE_OUTER_BOUND ( 'NONE', #250, .T. ) ;
#54 = EDGE_CURVE ( 'NONE', #220, #220, #204, .T. ) ;
#55 = DIRECTION ( 'NONE',  ( 0.0000000000000000000, 0.0000000000000000000, 1.000000000000000000 ) ) ;
#56 = APPROVAL ( #224, 'UNSPECIFIED' ) ;
#57 = AXIS2_PLACEMENT_3D ( 'NONE', #176, #63, #148 ) ;
#58 = PERSON_AND_ORGANIZATION ( #236, #171 ) ;
#59 = APPROVAL_ROLE ( '' ) ;
#60 = CONICAL_SURFACE ( 'NONE', #295, 1.449999999999998623, 0.7853981633974432830 ) ;
#61 = EDGE_LOOP ( 'NONE', ( #246 ) ) ;
#62 = ADVANCED_FACE ( 'NONE', ( #254, #6 ), #253, .T. ) ;
#63 = DIRECTION ( 'NONE',  ( -3.491481338843133355E-15, 1.224646799147353454E-16, -1.000000000000000000 ) ) ;
#64 = CALENDAR_DATE ( 2021, 2, 12 ) ;
#65 = DIRECTION ( 'NONE',  ( 0.0000000000000000000, 1.000000000000000000, 0.0000000000000000000 ) ) ;
#66 = PERSON_AND_ORGANIZATION ( #236, #171 ) ;
#67 = EDGE_LOOP ( 'NONE', ( #231 ) ) ;
#68 = ORIENTED_EDGE ( 'NONE', *, *, #196, .T. ) ;
#69 = CARTESIAN_POINT ( 'NONE',  ( 0.0000000000000000000, 0.0000000000000000000, 0.0000000000000000000 ) ) ;
#70 = AXIS2_PLACEMENT_3D ( 'NONE', #159, #50, #183 ) ;
#71 = CIRCLE ( 'NONE', #282, 1.200000000000001510 ) ;
#72 = CYLINDRICAL_SURFACE ( 'NONE', #123, 1.499999999999999334 ) ;
#73 = PLANE ( 'NONE',  #215 ) ;
#74 = CARTESIAN_POINT ( 'NONE',  ( 3.612429800294234159E-14, -1.267069808696350687E-15, 10.34641016151378423 ) ) ;
#75 = AXIS2_PLACEMENT_3D ( 'NONE', #251, #286, #284 ) ;
#76 = DIRECTION ( 'NONE',  ( 3.491481338843133355E-15, -1.224646799147353454E-16, 1.000000000000000000 ) ) ;
#77 = ADVANCED_FACE ( 'NONE', ( #138 ), #73, .F. ) ;
#78 = PERSON_AND_ORGANIZATION_ROLE ( 'design_owner' ) ;
#79 = EDGE_CURVE ( 'NONE', #33, #33, #241, .T. ) ;
#80 = CONICAL_SURFACE ( 'NONE', #8, 1.499999999999996003, 0.1745329251994265640 ) ;
#81 = CC_DESIGN_PERSON_AND_ORGANIZATION_ASSIGNMENT ( #58, #240, ( #149 ) ) ;
#82 = DIRECTION ( 'NONE',  ( 0.0000000000000000000, 1.000000000000000000, 0.0000000000000000000 ) ) ;
#83 = DATE_TIME_ROLE ( 'creation_date' ) ;
#84 = CIRCLE ( 'NONE', #216, 1.200000000000002842 ) ;
#85 = CYLINDRICAL_SURFACE ( 'NONE', #16, 1.249999999999998890 ) ;
#86 = CC_DESIGN_APPROVAL ( #56, ( #262 ) ) ;
#87 = EDGE_LOOP ( 'NONE', ( #267 ) ) ;
#88 = EDGE_LOOP ( 'NONE', ( #45 ) ) ;
#89 = EDGE_LOOP ( 'NONE', ( #242 ) ) ;
#90 = DESIGN_CONTEXT ( 'detailed design', #163, 'design' ) ;
#91 = PLANE ( 'NONE',  #57 ) ;
#92 = DIRECTION ( 'NONE',  ( -3.491481338843133355E-15, 1.224646799147353454E-16, -1.000000000000000000 ) ) ;
#93 = FACE_OUTER_BOUND ( 'NONE', #153, .T. ) ;
#94 = EDGE_CURVE ( 'NONE', #217, #217, #84, .T. ) ;
#95 = LOCAL_TIME ( 8, 16, 26.00000000000000000, #109 ) ;
#96 = AXIS2_PLACEMENT_3D ( 'NONE', #116, #2, #97 ) ;
#97 = DIRECTION ( 'NONE',  ( 0.0000000000000000000, 1.000000000000000000, 0.0000000000000000000 ) ) ;
#98 = DIRECTION ( 'NONE',  ( -3.491481338843133355E-15, 1.224646799147353454E-16, -1.000000000000000000 ) ) ;
#99 = DIRECTION ( 'NONE',  ( 3.984682643559802243E-31, 1.000000000000000000, 1.121588454295350520E-16 ) ) ;
#100 = CIRCLE ( 'NONE', #268, 1.449999999999999956 ) ;
#101 = APPROVAL_PERSON_ORGANIZATION ( #147, #56, #198 ) ;
#102 =( LENGTH_UNIT ( ) NAMED_UNIT ( * ) SI_UNIT ( .MILLI., .METRE. ) );
#103 = CARTESIAN_POINT ( 'NONE',  ( 3.491481338843133355E-14, 1.449999999999998623, 10.00000000000000000 ) ) ;
#104 = CARTESIAN_POINT ( 'NONE',  ( 2.129803616694311221E-13, 1.199999999999995515, 61.00000000000000000 ) ) ;
#105 = DATE_AND_TIME ( #238, #46 ) ;
#106 = CALENDAR_DATE ( 2021, 2, 12 ) ;
#107 = CARTESIAN_POINT ( 'NONE',  ( 3.491481338843133355E-14, -1.224646799147353454E-15, 10.00000000000000000 ) ) ;
#108 = CIRCLE ( 'NONE', #247, 1.249999999999999778 ) ;
#109 = COORDINATED_UNIVERSAL_TIME_OFFSET ( 1, 0, .AHEAD. ) ;
#110 = EDGE_LOOP ( 'NONE', ( #115 ) ) ;
#111 = ADVANCED_FACE ( 'NONE', ( #29, #27 ), #80, .T. ) ;
#112 = ORIENTED_EDGE ( 'NONE', *, *, #54, .F. ) ;
#113 = DIRECTION ( 'NONE',  ( -3.491481338843133355E-15, 1.224646799147353454E-16, -1.000000000000000000 ) ) ;
#114 = AXIS2_PLACEMENT_3D ( 'NONE', #49, #51, #99 ) ;
#115 = ORIENTED_EDGE ( 'NONE', *, *, #39, .T. ) ;
#116 = CARTESIAN_POINT ( 'NONE',  ( 3.491481338843133355E-14, -1.224646799147353454E-15, 10.00000000000000000 ) ) ;
#117 = CARTESIAN_POINT ( 'NONE',  ( 3.491481338843133355E-14, 1.087325842429845124E-32, 10.00000000000000000 ) ) ;
#118 = DIRECTION ( 'NONE',  ( 0.0000000000000000000, -1.000000000000000000, 0.0000000000000000000 ) ) ;
#119 = ADVANCED_FACE ( 'NONE', ( #53, #209 ), #72, .T. ) ;
#120 = DIRECTION ( 'NONE',  ( 3.491481338843133355E-15, -1.224646799147353454E-16, 1.000000000000000000 ) ) ;
#121 = CC_DESIGN_PERSON_AND_ORGANIZATION_ASSIGNMENT ( #34, #78, ( #293 ) ) ;
#122 = DIRECTION ( 'NONE',  ( -3.491481338843133355E-15, 1.224646799147353454E-16, -1.000000000000000000 ) ) ;
#123 = AXIS2_PLACEMENT_3D ( 'NONE', #52, #98, #303 ) ;
#124 = VERTEX_POINT ( 'NONE', #103 ) ;
#125 = CARTESIAN_POINT ( 'NONE',  ( 3.491481338843133355E-14, 1.449999999999998623, 10.00000000000000000 ) ) ;
#126 = APPLICATION_PROTOCOL_DEFINITION ( 'international standard', 'config_control_design', 1994, #163 ) ;
#127 = CALENDAR_DATE ( 2021, 2, 12 ) ;
#128 = PERSON_AND_ORGANIZATION_ROLE ( 'creator' ) ;
#129 = ORIENTED_EDGE ( 'NONE', *, *, #30, .F. ) ;
#130 = CARTESIAN_POINT ( 'NONE',  ( 8.728703347107833388E-14, -3.035766082959412415E-15, 25.00000000000000000 ) ) ;
#131 = LOCAL_TIME ( 8, 16, 26.00000000000000000, #150 ) ;
#132 = ORIENTED_EDGE ( 'NONE', *, *, #94, .F. ) ;
#133 = PLANE ( 'NONE',  #248 ) ;
#134 = CARTESIAN_POINT ( 'NONE',  ( 0.0000000000000000000, 0.0000000000000000000, 0.0000000000000000000 ) ) ;
#135 = EDGE_LOOP ( 'NONE', ( #277 ) ) ;
#136 = CARTESIAN_POINT ( 'NONE',  ( 8.849961221477469775E-14, -3.104148534859897544E-15, 25.34729635533384595 ) ) ;
#137 = CARTESIAN_POINT ( 'NONE',  ( 8.728703347107833388E-14, -3.061616997868383831E-15, 25.00000000000000000 ) ) ;
#138 = FACE_OUTER_BOUND ( 'NONE', #175, .T. ) ;
#139 = FACE_OUTER_BOUND ( 'NONE', #88, .T. ) ;
#140 = PLANE ( 'NONE',  #264 ) ;
#141 = APPROVAL_STATUS ( 'not_yet_approved' ) ;
#142 = VERTEX_POINT ( 'NONE', #125 ) ;
#143 = CARTESIAN_POINT ( 'NONE',  ( 2.119329172677781757E-13, 1.499999999999995559, 60.69999999999999574 ) ) ;
#144 = CLOSED_SHELL ( 'NONE', ( #77, #62, #10, #22, #111, #119, #285, #32 ) ) ;
#145 = AXIS2_PLACEMENT_3D ( 'NONE', #69, #92, #178 ) ;
#146 = ORIENTED_EDGE ( 'NONE', *, *, #30, .T. ) ;
#147 = PERSON_AND_ORGANIZATION ( #236, #171 ) ;
#148 = DIRECTION ( 'NONE',  ( 4.275831445896959482E-31, 1.000000000000000000, 1.224646799147353454E-16 ) ) ;
#149 = PRODUCT_DEFINITION ( 'UNKNOWN', '', #182, #90 ) ;
#150 = COORDINATED_UNIVERSAL_TIME_OFFSET ( 1, 0, .AHEAD. ) ;
#151 = EDGE_LOOP ( 'NONE', ( #132 ) ) ;
#152 = PRODUCT_DEFINITION_SHAPE ( 'NONE', 'NONE',  #149 ) ;
#153 = EDGE_LOOP ( 'NONE', ( #112 ) ) ;
#154 = DATE_AND_TIME ( #106, #95 ) ;
#155 = DIRECTION ( 'NONE',  ( 0.0000000000000000000, 1.000000000000000000, 0.0000000000000000000 ) ) ;
#156 = AXIS2_PLACEMENT_3D ( 'NONE', #259, #122, #157 ) ;
#157 = DIRECTION ( 'NONE',  ( 0.0000000000000000000, 1.000000000000000000, 0.0000000000000000000 ) ) ;
#158 = CC_DESIGN_DATE_AND_TIME_ASSIGNMENT ( #193, #83, ( #149 ) ) ;
#159 = CARTESIAN_POINT ( 'NONE',  ( 2.129803616694311221E-13, -7.470345474798856659E-15, 61.00000000000000000 ) ) ;
#160 = DIRECTION ( 'NONE',  ( 3.491481338843133355E-15, -1.224646799147353454E-16, 1.000000000000000000 ) ) ;
#161 = DIRECTION ( 'NONE',  ( -3.491481338843133355E-15, 1.224646799147353454E-16, -1.000000000000000000 ) ) ;
#162 = TOROIDAL_SURFACE ( 'NONE', #181, 3.250000000000000000, 2.000000000000000000 ) ;
#163 = APPLICATION_CONTEXT ( 'configuration controlled 3d designs of mechanical parts and assemblies' ) ;
#164 = DIRECTION ( 'NONE',  ( -4.275831445896959482E-31, -1.000000000000000000, -1.224646799147353454E-16 ) ) ;
#165 = MECHANICAL_CONTEXT ( 'NONE', #166, 'mechanical' ) ;
#166 = APPLICATION_CONTEXT ( 'configuration controlled 3d designs of mechanical parts and assemblies' ) ;
#167 = CARTESIAN_POINT ( 'NONE',  ( 3.612429800294234159E-14, 1.249999999999996891, 10.34641016151378423 ) ) ;
#168 = PERSON_AND_ORGANIZATION ( #236, #171 ) ;
#169 = APPROVAL ( #141, 'UNSPECIFIED' ) ;
#170 = EDGE_LOOP ( 'NONE', ( #129 ) ) ;
#171 = ORGANIZATION ( 'UNSPECIFIED', 'UNSPECIFIED', '' ) ;
#172 = FACE_OUTER_BOUND ( 'NONE', #170, .T. ) ;
#173 = EDGE_LOOP ( 'NONE', ( #146 ) ) ;
#174 = APPROVAL_DATE_TIME ( #270, #56 ) ;
#175 = EDGE_LOOP ( 'NONE', ( #298 ) ) ;
#176 = CARTESIAN_POINT ( 'NONE',  ( 2.129803616694311221E-13, 8.998558695971062171E-33, 61.00000000000000000 ) ) ;
#177 = CC_DESIGN_PERSON_AND_ORGANIZATION_ASSIGNMENT ( #42, #245, ( #262 ) ) ;
#178 = DIRECTION ( 'NONE',  ( 4.275831445896958607E-31, 1.000000000000000000, 1.224646799147353207E-16 ) ) ;
#179 = APPROVAL_PERSON_ORGANIZATION ( #168, #47, #59 ) ;
#180 = FACE_BOUND ( 'NONE', #19, .T. ) ;
#181 = AXIS2_PLACEMENT_3D ( 'NONE', #130, #113, #223 ) ;
#182 = PRODUCT_DEFINITION_FORMATION_WITH_SPECIFIED_SOURCE ( 'ANY', '', #293, .NOT_KNOWN. ) ;
#183 = DIRECTION ( 'NONE',  ( 0.0000000000000000000, 1.000000000000000000, 0.0000000000000000000 ) ) ;
#184 = DIRECTION ( 'NONE',  ( 0.0000000000000000000, 1.000000000000000000, 0.0000000000000000000 ) ) ;
#185 = DIRECTION ( 'NONE',  ( 4.275831445896958607E-31, 1.000000000000000000, 1.224646799147353207E-16 ) ) ;
#186 = AXIS2_PLACEMENT_3D ( 'NONE', #265, #55, #290 ) ;
#187 =( NAMED_UNIT ( * ) PLANE_ANGLE_UNIT ( ) SI_UNIT ( $, .RADIAN. ) );
#188 = VERTEX_POINT ( 'NONE', #261 ) ;
#189 = PRODUCT_RELATED_PRODUCT_CATEGORY ( 'detail', '', ( #293 ) ) ;
#190 = VERTEX_POINT ( 'NONE', #36 ) ;
#191 = ADVANCED_FACE ( 'NONE', ( #139, #28 ), #235, .T. ) ;
#192 =( NAMED_UNIT ( * ) SI_UNIT ( $, .STERADIAN. ) SOLID_ANGLE_UNIT ( ) );
#193 = DATE_AND_TIME ( #127, #14 ) ;
#194 = MANIFOLD_SOLID_BREP ( 'Corps-Déplacer/Copier1[2]', #229 ) ;
#195 = CONICAL_SURFACE ( 'NONE', #70, 1.200000000000002842, 0.7853981633974453924 ) ;
#196 = EDGE_CURVE ( 'NONE', #218, #218, #71, .T. ) ;
#197 = ORIENTED_EDGE ( 'NONE', *, *, #228, .T. ) ;
#198 = APPROVAL_ROLE ( '' ) ;
#199 = DIRECTION ( 'NONE',  ( -4.275831445896959482E-31, -1.000000000000000000, -1.224646799147353454E-16 ) ) ;
#200 = CALENDAR_DATE ( 2021, 2, 12 ) ;
#201 = CARTESIAN_POINT ( 'NONE',  ( 3.491481338843133355E-14, 1.087325842429845124E-32, 10.00000000000000000 ) ) ;
#202 = MANIFOLD_SOLID_BREP ( 'Corps-Déplacer/Copier1[1]', #144 ) ;
#203 = SHAPE_DEFINITION_REPRESENTATION ( #152, #279 ) ;
#204 = CIRCLE ( 'NONE', #75, 1.500000000000002887 ) ;
#205 = DIRECTION ( 'NONE',  ( -3.491481338843133355E-15, 1.224646799147353454E-16, -1.000000000000000000 ) ) ;
#206 = FACE_OUTER_BOUND ( 'NONE', #87, .T. ) ;
#207 = DIRECTION ( 'NONE',  ( 0.0000000000000000000, 1.000000000000000000, 0.0000000000000000000 ) ) ;
#208 = APPROVAL_PERSON_ORGANIZATION ( #260, #169, #291 ) ;
#209 = FACE_OUTER_BOUND ( 'NONE', #89, .T. ) ;
#210 = ADVANCED_FACE ( 'NONE', ( #280, #4 ), #60, .T. ) ;
#211 = DIRECTION ( 'NONE',  ( 3.491481338843133355E-15, -1.224646799147353454E-16, 1.000000000000000000 ) ) ;
#212 = DIRECTION ( 'NONE',  ( -3.984682643559802243E-31, -1.000000000000000000, -1.121588454295350520E-16 ) ) ;
#213 = ADVANCED_FACE ( 'NONE', ( #287 ), #140, .F. ) ;
#214 = VERTEX_POINT ( 'NONE', #167 ) ;
#215 = AXIS2_PLACEMENT_3D ( 'NONE', #117, #160, #256 ) ;
#216 = AXIS2_PLACEMENT_3D ( 'NONE', #234, #237, #184 ) ;
#217 = VERTEX_POINT ( 'NONE', #104 ) ;
#218 = VERTEX_POINT ( 'NONE', #289 ) ;
#219 = CARTESIAN_POINT ( 'NONE',  ( 8.728703347107833388E-16, 1.449999999999998623, 0.2500000000000000000 ) ) ;
#220 = VERTEX_POINT ( 'NONE', #143 ) ;
#221 = EDGE_LOOP ( 'NONE', ( #24 ) ) ;
#222 = DATE_TIME_ROLE ( 'classification_date' ) ;
#223 = DIRECTION ( 'NONE',  ( 4.275831445896959482E-31, 1.000000000000000000, 1.224646799147353454E-16 ) ) ;
#224 = APPROVAL_STATUS ( 'not_yet_approved' ) ;
#225 = ORIENTED_EDGE ( 'NONE', *, *, #302, .T. ) ;
#226 = EDGE_LOOP ( 'NONE', ( #68 ) ) ;
#227 = EDGE_CURVE ( 'NONE', #190, #190, #239, .T. ) ;
#228 = EDGE_CURVE ( 'NONE', #9, #9, #23, .T. ) ;
#229 = CLOSED_SHELL ( 'NONE', ( #213, #210, #191, #5 ) ) ;
#230 = LOCAL_TIME ( 8, 16, 26.00000000000000000, #273 ) ;
#231 = ORIENTED_EDGE ( 'NONE', *, *, #258, .F. ) ;
#232 = DIRECTION ( 'NONE',  ( 0.0000000000000000000, 1.000000000000000000, 0.0000000000000000000 ) ) ;
#233 = CARTESIAN_POINT ( 'NONE',  ( 6.225417223222611768E-31, -2.183582421294707181E-32, 1.783030358479687531E-16 ) ) ;
#234 = CARTESIAN_POINT ( 'NONE',  ( 2.129803616694311221E-13, -7.470345474798856659E-15, 61.00000000000000000 ) ) ;
#235 = CYLINDRICAL_SURFACE ( 'NONE', #145, 1.449999999999999289 ) ;
#236 = PERSON ( 'UNSPECIFIED', 'UNSPECIFIED', 'UNSPECIFIED', ('UNSPECIFIED'), ('UNSPECIFIED'), ('UNSPECIFIED') ) ;
#237 = DIRECTION ( 'NONE',  ( -3.491481338843133355E-15, 1.224646799147353454E-16, -1.000000000000000000 ) ) ;
#238 = CALENDAR_DATE ( 2021, 2, 12 ) ;
#239 = CIRCLE ( 'NONE', #156, 1.499999999999996003 ) ;
#240 = PERSON_AND_ORGANIZATION_ROLE ( 'creator' ) ;
#241 = CIRCLE ( 'NONE', #114, 1.449999999999998623 ) ;
#242 = ORIENTED_EDGE ( 'NONE', *, *, #54, .T. ) ;
#243 = APPROVAL_DATE_TIME ( #154, #47 ) ;
#244 = DIRECTION ( 'NONE',  ( -3.491481338843133355E-15, 1.224646799147353454E-16, -1.000000000000000000 ) ) ;
#245 = PERSON_AND_ORGANIZATION_ROLE ( 'classification_officer' ) ;
#246 = ORIENTED_EDGE ( 'NONE', *, *, #302, .F. ) ;
#247 = AXIS2_PLACEMENT_3D ( 'NONE', #137, #26, #82 ) ;
#248 = AXIS2_PLACEMENT_3D ( 'NONE', #201, #276, #199 ) ;
#249 = CARTESIAN_POINT ( 'NONE',  ( 3.612429800294234159E-14, -1.267069808696350687E-15, 10.34641016151378423 ) ) ;
#250 = EDGE_LOOP ( 'NONE', ( #13 ) ) ;
#251 = CARTESIAN_POINT ( 'NONE',  ( 2.119329172677781757E-13, -7.433606070824434221E-15, 60.69999999999999574 ) ) ;
#252 = CIRCLE ( 'NONE', #96, 1.449999999999999956 ) ;
#253 = CONICAL_SURFACE ( 'NONE', #269, 1.249999999999998224, 0.5235987755982924874 ) ;
#254 = FACE_OUTER_BOUND ( 'NONE', #67, .T. ) ;
#255 = CARTESIAN_POINT ( 'NONE',  ( 8.728703347107827472E-16, -3.061616997868381785E-17, 0.2499999999999998335 ) ) ;
#256 = DIRECTION ( 'NONE',  ( -4.275831445896959482E-31, -1.000000000000000000, -1.224646799147353454E-16 ) ) ;
#257 = CARTESIAN_POINT ( 'NONE',  ( 9.284825720332949933E-14, -3.256678468404562521E-15, 26.59279778195630328 ) ) ;
#258 = EDGE_CURVE ( 'NONE', #124, #124, #252, .T. ) ;
#259 = CARTESIAN_POINT ( 'NONE',  ( 9.284825720332949933E-14, -3.256678468404562521E-15, 26.59279778195630328 ) ) ;
#260 = PERSON_AND_ORGANIZATION ( #236, #171 ) ;
#261 = CARTESIAN_POINT ( 'NONE',  ( 8.728703347107833388E-14, 1.249999999999996669, 25.00000000000000000 ) ) ;
#262 = SECURITY_CLASSIFICATION ( '', '', #37 ) ;
#263 = CIRCLE ( 'NONE', #3, 1.249999999999998224 ) ;
#264 = AXIS2_PLACEMENT_3D ( 'NONE', #283, #76, #164 ) ;
#265 = CARTESIAN_POINT ( 'NONE',  ( 0.0000000000000000000, 0.0000000000000000000, 0.0000000000000000000 ) ) ;
#266 = APPROVAL_STATUS ( 'not_yet_approved' ) ;
#267 = ORIENTED_EDGE ( 'NONE', *, *, #39, .F. ) ;
#268 = AXIS2_PLACEMENT_3D ( 'NONE', #107, #205, #65 ) ;
#269 = AXIS2_PLACEMENT_3D ( 'NONE', #74, #161, #207 ) ;
#270 = DATE_AND_TIME ( #200, #131 ) ;
#271 = EDGE_LOOP ( 'NONE', ( #278 ) ) ;
#272 = CC_DESIGN_DATE_AND_TIME_ASSIGNMENT ( #299, #222, ( #262 ) ) ;
#273 = COORDINATED_UNIVERSAL_TIME_OFFSET ( 1, 0, .AHEAD. ) ;
#274 = ORIENTED_EDGE ( 'NONE', *, *, #79, .T. ) ;
#275 = PERSON_AND_ORGANIZATION_ROLE ( 'design_supplier' ) ;
#276 = DIRECTION ( 'NONE',  ( 3.491481338843133355E-15, -1.224646799147353454E-16, 1.000000000000000000 ) ) ;
#277 = ORIENTED_EDGE ( 'NONE', *, *, #196, .F. ) ;
#278 = ORIENTED_EDGE ( 'NONE', *, *, #228, .F. ) ;
#279 = ADVANCED_BREP_SHAPE_REPRESENTATION ( '200700', ( #202, #194, #186 ), #281 ) ;
#280 = FACE_BOUND ( 'NONE', #135, .T. ) ;
#281 =( GEOMETRIC_REPRESENTATION_CONTEXT ( 3 ) GLOBAL_UNCERTAINTY_ASSIGNED_CONTEXT ( ( #20 ) ) GLOBAL_UNIT_ASSIGNED_CONTEXT ( ( #102, #187, #192 ) ) REPRESENTATION_CONTEXT ( 'NONE', 'WORKASPACE' ) );
#282 = AXIS2_PLACEMENT_3D ( 'NONE', #233, #7, #185 ) ;
#283 = CARTESIAN_POINT ( 'NONE',  ( 3.112708611611305884E-31, -1.091791210647353591E-32, 8.915151792398437653E-17 ) ) ;
#284 = DIRECTION ( 'NONE',  ( 0.0000000000000000000, 1.000000000000000000, 0.0000000000000000000 ) ) ;
#285 = ADVANCED_FACE ( 'NONE', ( #93, #180 ), #195, .T. ) ;
#286 = DIRECTION ( 'NONE',  ( -3.491481338843133355E-15, 1.224646799147353454E-16, -1.000000000000000000 ) ) ;
#287 = FACE_OUTER_BOUND ( 'NONE', #226, .T. ) ;
#288 = APPLICATION_PROTOCOL_DEFINITION ( 'international standard', 'config_control_design', 1994, #166 ) ;
#289 = CARTESIAN_POINT ( 'NONE',  ( 1.135641495829896858E-30, 1.200000000000001510, 3.252606517456513302E-16 ) ) ;
#290 = DIRECTION ( 'NONE',  ( 1.000000000000000000, 0.0000000000000000000, 0.0000000000000000000 ) ) ;
#291 = APPROVAL_ROLE ( '' ) ;
#292 = APPROVAL_DATE_TIME ( #105, #169 ) ;
#293 = PRODUCT ( '200700', '200700', '', ( #165 ) ) ;
#294 = CC_DESIGN_PERSON_AND_ORGANIZATION_ASSIGNMENT ( #296, #128, ( #182 ) ) ;
#295 = AXIS2_PLACEMENT_3D ( 'NONE', #255, #120, #212 ) ;
#296 = PERSON_AND_ORGANIZATION ( #236, #171 ) ;
#297 = EDGE_LOOP ( 'NONE', ( #274 ) ) ;
#298 = ORIENTED_EDGE ( 'NONE', *, *, #258, .T. ) ;
#299 = DATE_AND_TIME ( #64, #230 ) ;
#300 = DIRECTION ( 'NONE',  ( 4.275831445896960358E-31, 1.000000000000000000, 1.224646799147353454E-16 ) ) ;
#301 = FACE_OUTER_BOUND ( 'NONE', #151, .T. ) ;
#302 = EDGE_CURVE ( 'NONE', #188, #188, #108, .T. ) ;
#303 = DIRECTION ( 'NONE',  ( 4.275831445896960358E-31, 1.000000000000000000, 1.224646799147353454E-16 ) ) ;
ENDSEC;
END-ISO-10303-21;
