ISO-10303-21;
HEADER;
FILE_DESCRIPTION (( 'STEP AP203' ),
    '1' );
FILE_NAME ('200699.step',
    '2021-12-02T07:16:25',
    ( '' ),
    ( '' ),
    'SwSTEP 2.0',
    'SolidWorks 2019',
    '' );
FILE_SCHEMA (( 'CONFIG_CONTROL_DESIGN' ));
ENDSEC;

DATA;
#1 = ADVANCED_FACE ( 'NONE', ( #22, #67 ), #56, .T. ) ;
#2 = FACE_OUTER_BOUND ( 'NONE', #298, .T. ) ;
#3 = CIRCLE ( 'NONE', #86, 1.200000000000002842 ) ;
#4 = AXIS2_PLACEMENT_3D ( 'NONE', #247, #160, #255 ) ;
#5 = DIRECTION ( 'NONE',  ( 0.0000000000000000000, 1.000000000000000000, 0.0000000000000000000 ) ) ;
#6 = CC_DESIGN_PERSON_AND_ORGANIZATION_ASSIGNMENT ( #273, #159, ( #161 ) ) ;
#7 = CARTESIAN_POINT ( 'NONE',  ( 3.491481338843133355E-14, -1.224646799147353454E-15, 10.00000000000000000 ) ) ;
#8 = DIRECTION ( 'NONE',  ( -3.491481338843133355E-15, 1.224646799147353454E-16, -1.000000000000000000 ) ) ;
#9 = TOROIDAL_SURFACE ( 'NONE', #241, 3.225000000000000089, 2.000000000000000000 ) ;
#10 = DIRECTION ( 'NONE',  ( -4.275831445896959482E-31, -1.000000000000000000, -1.224646799147353454E-16 ) ) ;
#11 = CIRCLE ( 'NONE', #134, 1.175000000000001599 ) ;
#12 = APPROVAL ( #150, 'UNSPECIFIED' ) ;
#13 = PERSON_AND_ORGANIZATION ( #262, #220 ) ;
#14 = PRODUCT_DEFINITION_SHAPE ( 'NONE', 'NONE',  #29 ) ;
#15 = VERTEX_POINT ( 'NONE', #77 ) ;
#16 = PERSON_AND_ORGANIZATION ( #262, #220 ) ;
#17 = CALENDAR_DATE ( 2021, 2, 12 ) ;
#18 = EDGE_LOOP ( 'NONE', ( #92 ) ) ;
#19 = APPROVAL_PERSON_ORGANIZATION ( #279, #277, #204 ) ;
#20 = DATE_AND_TIME ( #17, #43 ) ;
#21 = EDGE_LOOP ( 'NONE', ( #278 ) ) ;
#22 = FACE_OUTER_BOUND ( 'NONE', #186, .T. ) ;
#23 = PERSON_AND_ORGANIZATION ( #262, #220 ) ;
#24 = UNCERTAINTY_MEASURE_WITH_UNIT (LENGTH_MEASURE( 1.000000000000000082E-05 ), #124, 'distance_accuracy_value', 'NONE');
#25 = DIRECTION ( 'NONE',  ( -3.491481338843133355E-15, 1.224646799147353454E-16, -1.000000000000000000 ) ) ;
#26 = FACE_BOUND ( 'NONE', #18, .T. ) ;
#27 = APPLICATION_CONTEXT ( 'configuration controlled 3d designs of mechanical parts and assemblies' ) ;
#28 = FACE_OUTER_BOUND ( 'NONE', #228, .T. ) ;
#29 = PRODUCT_DEFINITION ( 'UNKNOWN', '', #161, #300 ) ;
#30 = DIRECTION ( 'NONE',  ( 3.491481338843133355E-15, -1.224646799147353454E-16, 1.000000000000000000 ) ) ;
#31 = DIRECTION ( 'NONE',  ( 3.491481338843133355E-15, -1.224646799147353454E-16, 1.000000000000000000 ) ) ;
#32 = DIRECTION ( 'NONE',  ( 0.0000000000000000000, 1.000000000000000000, 0.0000000000000000000 ) ) ;
#33 = FACE_OUTER_BOUND ( 'NONE', #21, .T. ) ;
#34 = AXIS2_PLACEMENT_3D ( 'NONE', #101, #292, #200 ) ;
#35 = VERTEX_POINT ( 'NONE', #145 ) ;
#36 = AXIS2_PLACEMENT_3D ( 'NONE', #136, #234, #10 ) ;
#37 = ADVANCED_FACE ( 'NONE', ( #212 ), #151, .T. ) ;
#38 = PLANE ( 'NONE',  #257 ) ;
#39 = COORDINATED_UNIVERSAL_TIME_OFFSET ( 1, 0, .AHEAD. ) ;
#40 = VERTEX_POINT ( 'NONE', #222 ) ;
#41 = APPROVAL_DATE_TIME ( #252, #12 ) ;
#42 = FACE_OUTER_BOUND ( 'NONE', #65, .T. ) ;
#43 = LOCAL_TIME ( 8, 16, 25.00000000000000000, #68 ) ;
#44 = ORIENTED_EDGE ( 'NONE', *, *, #88, .F. ) ;
#45 = EDGE_LOOP ( 'NONE', ( #158 ) ) ;
#46 = EDGE_LOOP ( 'NONE', ( #44 ) ) ;
#47 = CARTESIAN_POINT ( 'NONE',  ( 9.334328656934240837E-14, -3.274041761223206859E-15, 26.73457982744675121 ) ) ;
#48 = EDGE_CURVE ( 'NONE', #243, #243, #290, .T. ) ;
#49 = PLANE ( 'NONE',  #36 ) ;
#50 = CARTESIAN_POINT ( 'NONE',  ( 8.728703347107827472E-16, -3.061616997868381785E-17, 0.2499999999999998335 ) ) ;
#51 = DIRECTION ( 'NONE',  ( -3.491481338843133355E-15, 1.224646799147353454E-16, -1.000000000000000000 ) ) ;
#52 = CARTESIAN_POINT ( 'NONE',  ( 3.612429800294234159E-14, -1.267069808696350687E-15, 10.34641016151378423 ) ) ;
#53 = DIRECTION ( 'NONE',  ( -3.491481338843133355E-15, 1.224646799147353454E-16, -1.000000000000000000 ) ) ;
#54 = ADVANCED_FACE ( 'NONE', ( #26, #42 ), #99, .T. ) ;
#55 = VERTEX_POINT ( 'NONE', #219 ) ;
#56 = CONICAL_SURFACE ( 'NONE', #267, 1.200000000000002842, 0.7853981633974453924 ) ;
#57 = CONICAL_SURFACE ( 'NONE', #282, 1.424999999999998712, 0.7853981633974428389 ) ;
#58 = FACE_OUTER_BOUND ( 'NONE', #45, .T. ) ;
#59 = MECHANICAL_CONTEXT ( 'NONE', #27, 'mechanical' ) ;
#60 = CIRCLE ( 'NONE', #177, 1.224999999999998535 ) ;
#61 = PERSON_AND_ORGANIZATION_ROLE ( 'classification_officer' ) ;
#62 = EDGE_LOOP ( 'NONE', ( #113 ) ) ;
#63 = CC_DESIGN_PERSON_AND_ORGANIZATION_ASSIGNMENT ( #106, #61, ( #205 ) ) ;
#64 = ORIENTED_EDGE ( 'NONE', *, *, #201, .T. ) ;
#65 = EDGE_LOOP ( 'NONE', ( #155 ) ) ;
#66 = AXIS2_PLACEMENT_3D ( 'NONE', #47, #135, #233 ) ;
#67 = FACE_BOUND ( 'NONE', #85, .T. ) ;
#68 = COORDINATED_UNIVERSAL_TIME_OFFSET ( 1, 0, .AHEAD. ) ;
#69 = EDGE_LOOP ( 'NONE', ( #89 ) ) ;
#70 = DIRECTION ( 'NONE',  ( -3.491481338843133355E-15, 1.224646799147353454E-16, -1.000000000000000000 ) ) ;
#71 =( GEOMETRIC_REPRESENTATION_CONTEXT ( 3 ) GLOBAL_UNCERTAINTY_ASSIGNED_CONTEXT ( ( #24 ) ) GLOBAL_UNIT_ASSIGNED_CONTEXT ( ( #124, #103, #202 ) ) REPRESENTATION_CONTEXT ( 'NONE', 'WORKASPACE' ) );
#72 = APPROVAL_PERSON_ORGANIZATION ( #13, #225, #146 ) ;
#73 = DIRECTION ( 'NONE',  ( -3.491481338843133355E-15, 1.224646799147353454E-16, -1.000000000000000000 ) ) ;
#74 = DIRECTION ( 'NONE',  ( -3.491481338843133355E-15, 1.224646799147353454E-16, -1.000000000000000000 ) ) ;
#75 = DIRECTION ( 'NONE',  ( 0.0000000000000000000, 1.000000000000000000, 0.0000000000000000000 ) ) ;
#76 = DIRECTION ( 'NONE',  ( 4.054589356604711069E-31, 1.000000000000000000, 1.141265444721584744E-16 ) ) ;
#77 = CARTESIAN_POINT ( 'NONE',  ( 3.491481338843133355E-14, 1.424999999999998712, 10.00000000000000000 ) ) ;
#78 = AXIS2_PLACEMENT_3D ( 'NONE', #170, #74, #190 ) ;
#79 = DIRECTION ( 'NONE',  ( -3.491481338843133355E-15, 1.224646799147353454E-16, -1.000000000000000000 ) ) ;
#80 = ADVANCED_FACE ( 'NONE', ( #276, #129 ), #232, .T. ) ;
#81 = APPLICATION_PROTOCOL_DEFINITION ( 'international standard', 'config_control_design', 1994, #27 ) ;
#82 = APPLICATION_PROTOCOL_DEFINITION ( 'international standard', 'config_control_design', 1994, #125 ) ;
#83 = LOCAL_TIME ( 8, 16, 25.00000000000000000, #249 ) ;
#84 = DATE_AND_TIME ( #130, #144 ) ;
#85 = EDGE_LOOP ( 'NONE', ( #64 ) ) ;
#86 = AXIS2_PLACEMENT_3D ( 'NONE', #260, #73, #32 ) ;
#87 = ORIENTED_EDGE ( 'NONE', *, *, #88, .T. ) ;
#88 = EDGE_CURVE ( 'NONE', #224, #224, #192, .T. ) ;
#89 = ORIENTED_EDGE ( 'NONE', *, *, #187, .T. ) ;
#90 = ORIENTED_EDGE ( 'NONE', *, *, #48, .F. ) ;
#91 = APPROVAL_DATE_TIME ( #183, #277 ) ;
#92 = ORIENTED_EDGE ( 'NONE', *, *, #216, .F. ) ;
#93 = DIRECTION ( 'NONE',  ( 4.275831445896959482E-31, 1.000000000000000000, 1.224646799147353454E-16 ) ) ;
#94 = FACE_OUTER_BOUND ( 'NONE', #46, .T. ) ;
#95 = CIRCLE ( 'NONE', #214, 1.425000000000000044 ) ;
#96 = DIRECTION ( 'NONE',  ( 0.0000000000000000000, 1.000000000000000000, 0.0000000000000000000 ) ) ;
#97 = CARTESIAN_POINT ( 'NONE',  ( 8.728703347107833388E-14, -3.035766082959412415E-15, 25.00000000000000000 ) ) ;
#98 = FACE_OUTER_BOUND ( 'NONE', #254, .T. ) ;
#99 = CONICAL_SURFACE ( 'NONE', #271, 1.499999999999996003, 0.1745329251994264252 ) ;
#100 = MANIFOLD_SOLID_BREP ( 'Corps-Déplacer/Copier1[1]', #168 ) ;
#101 = CARTESIAN_POINT ( 'NONE',  ( 0.0000000000000000000, 0.0000000000000000000, 0.0000000000000000000 ) ) ;
#102 = MANIFOLD_SOLID_BREP ( 'Corps-Déplacer/Copier1[2]', #191 ) ;
#103 =( NAMED_UNIT ( * ) PLANE_ANGLE_UNIT ( ) SI_UNIT ( $, .RADIAN. ) );
#104 = VERTEX_POINT ( 'NONE', #265 ) ;
#105 = PERSON_AND_ORGANIZATION_ROLE ( 'design_owner' ) ;
#106 = PERSON_AND_ORGANIZATION ( #262, #220 ) ;
#107 = AXIS2_PLACEMENT_3D ( 'NONE', #286, #70, #258 ) ;
#108 = COORDINATED_UNIVERSAL_TIME_OFFSET ( 1, 0, .AHEAD. ) ;
#109 = EDGE_LOOP ( 'NONE', ( #213 ) ) ;
#110 = EDGE_LOOP ( 'NONE', ( #112 ) ) ;
#111 = SHAPE_DEFINITION_REPRESENTATION ( #14, #211 ) ;
#112 = ORIENTED_EDGE ( 'NONE', *, *, #176, .F. ) ;
#113 = ORIENTED_EDGE ( 'NONE', *, *, #163, .T. ) ;
#114 = CARTESIAN_POINT ( 'NONE',  ( 8.728703347107827472E-16, -3.061616997868381785E-17, 0.2499999999999998335 ) ) ;
#115 = ADVANCED_FACE ( 'NONE', ( #196, #28 ), #57, .T. ) ;
#116 = DIRECTION ( 'NONE',  ( -3.491481338843133355E-15, 1.224646799147353454E-16, -1.000000000000000000 ) ) ;
#117 = FACE_OUTER_BOUND ( 'NONE', #301, .T. ) ;
#118 = FACE_OUTER_BOUND ( 'NONE', #230, .T. ) ;
#119 = PRODUCT_RELATED_PRODUCT_CATEGORY ( 'detail', '', ( #156 ) ) ;
#120 = ADVANCED_FACE ( 'NONE', ( #118, #141 ), #139, .T. ) ;
#121 = FACE_OUTER_BOUND ( 'NONE', #69, .T. ) ;
#122 = VERTEX_POINT ( 'NONE', #244 ) ;
#123 = DATE_AND_TIME ( #203, #283 ) ;
#124 =( LENGTH_UNIT ( ) NAMED_UNIT ( * ) SI_UNIT ( .MILLI., .METRE. ) );
#125 = APPLICATION_CONTEXT ( 'configuration controlled 3d designs of mechanical parts and assemblies' ) ;
#126 = DIRECTION ( 'NONE',  ( 3.491481338843133355E-15, -1.224646799147353454E-16, 1.000000000000000000 ) ) ;
#127 = CC_DESIGN_PERSON_AND_ORGANIZATION_ASSIGNMENT ( #147, #105, ( #156 ) ) ;
#128 = CC_DESIGN_SECURITY_CLASSIFICATION ( #205, ( #161 ) ) ;
#129 = FACE_BOUND ( 'NONE', #280, .T. ) ;
#130 = CALENDAR_DATE ( 2021, 2, 12 ) ;
#131 = ORIENTED_EDGE ( 'NONE', *, *, #294, .T. ) ;
#132 = PERSON_AND_ORGANIZATION_ROLE ( 'creator' ) ;
#133 = CARTESIAN_POINT ( 'NONE',  ( 2.129803616694311221E-13, -7.470345474798856659E-15, 61.00000000000000000 ) ) ;
#134 = AXIS2_PLACEMENT_3D ( 'NONE', #281, #285, #284 ) ;
#135 = DIRECTION ( 'NONE',  ( -3.491481338843133355E-15, 1.224646799147353454E-16, -1.000000000000000000 ) ) ;
#136 = CARTESIAN_POINT ( 'NONE',  ( -6.193151480813054814E-32, 2.172265122323529859E-33, -1.773789082563188800E-17 ) ) ;
#137 = EDGE_CURVE ( 'NONE', #199, #199, #11, .T. ) ;
#138 = DIRECTION ( 'NONE',  ( 0.0000000000000000000, 1.000000000000000000, 0.0000000000000000000 ) ) ;
#139 = CYLINDRICAL_SURFACE ( 'NONE', #268, 1.499999999999999334 ) ;
#140 = CYLINDRICAL_SURFACE ( 'NONE', #78, 1.424999999999999378 ) ;
#141 = FACE_OUTER_BOUND ( 'NONE', #208, .T. ) ;
#142 = DIRECTION ( 'NONE',  ( 4.275831445896959482E-31, 1.000000000000000000, 1.224646799147353454E-16 ) ) ;
#143 = AXIS2_PLACEMENT_3D ( 'NONE', #227, #166, #96 ) ;
#144 = LOCAL_TIME ( 8, 16, 25.00000000000000000, #108 ) ;
#145 = CARTESIAN_POINT ( 'NONE',  ( 3.491481338843133355E-14, 1.424999999999998712, 10.00000000000000000 ) ) ;
#146 = APPROVAL_ROLE ( '' ) ;
#147 = PERSON_AND_ORGANIZATION ( #262, #220 ) ;
#148 = PERSON_AND_ORGANIZATION ( #262, #220 ) ;
#149 = AXIS2_PLACEMENT_3D ( 'NONE', #215, #8, #5 ) ;
#150 = APPROVAL_STATUS ( 'not_yet_approved' ) ;
#151 = PLANE ( 'NONE',  #4 ) ;
#152 = ORIENTED_EDGE ( 'NONE', *, *, #187, .F. ) ;
#153 = ADVANCED_FACE ( 'NONE', ( #236 ), #193, .F. ) ;
#154 = COORDINATED_UNIVERSAL_TIME_OFFSET ( 1, 0, .AHEAD. ) ;
#155 = ORIENTED_EDGE ( 'NONE', *, *, #48, .T. ) ;
#156 = PRODUCT ( '200699', '200699', '', ( #59 ) ) ;
#157 = EDGE_CURVE ( 'NONE', #122, #122, #60, .T. ) ;
#158 = ORIENTED_EDGE ( 'NONE', *, *, #201, .F. ) ;
#159 = PERSON_AND_ORGANIZATION_ROLE ( 'design_supplier' ) ;
#160 = DIRECTION ( 'NONE',  ( 3.491481338843133355E-15, -1.224646799147353454E-16, 1.000000000000000000 ) ) ;
#161 = PRODUCT_DEFINITION_FORMATION_WITH_SPECIFIED_SOURCE ( 'ANY', '', #156, .NOT_KNOWN. ) ;
#162 = DIRECTION ( 'NONE',  ( 0.0000000000000000000, 1.000000000000000000, 0.0000000000000000000 ) ) ;
#163 = EDGE_CURVE ( 'NONE', #35, #35, #197, .T. ) ;
#164 = CARTESIAN_POINT ( 'NONE',  ( 8.728703347107833388E-14, -3.061616997868383831E-15, 25.00000000000000000 ) ) ;
#165 = CC_DESIGN_PERSON_AND_ORGANIZATION_ASSIGNMENT ( #16, #246, ( #161 ) ) ;
#166 = DIRECTION ( 'NONE',  ( -3.491481338843133355E-15, 1.224646799147353454E-16, -1.000000000000000000 ) ) ;
#167 = CARTESIAN_POINT ( 'NONE',  ( 0.0000000000000000000, 0.0000000000000000000, 0.0000000000000000000 ) ) ;
#168 = CLOSED_SHELL ( 'NONE', ( #153, #80, #248, #231, #54, #120, #1, #296 ) ) ;
#169 = CC_DESIGN_PERSON_AND_ORGANIZATION_ASSIGNMENT ( #148, #132, ( #29 ) ) ;
#170 = CARTESIAN_POINT ( 'NONE',  ( 0.0000000000000000000, 0.0000000000000000000, 0.0000000000000000000 ) ) ;
#171 = CARTESIAN_POINT ( 'NONE',  ( 2.129803616694311221E-13, 8.998558695971062171E-33, 61.00000000000000000 ) ) ;
#172 = CARTESIAN_POINT ( 'NONE',  ( 8.728703347107833388E-14, 1.224999999999996980, 25.00000000000000000 ) ) ;
#173 = CIRCLE ( 'NONE', #295, 1.224999999999999867 ) ;
#174 = ADVANCED_FACE ( 'NONE', ( #94, #263 ), #140, .T. ) ;
#175 = DIRECTION ( 'NONE',  ( -3.491481338843133355E-15, 1.224646799147353454E-16, -1.000000000000000000 ) ) ;
#176 = EDGE_CURVE ( 'NONE', #15, #15, #95, .T. ) ;
#177 = AXIS2_PLACEMENT_3D ( 'NONE', #52, #217, #162 ) ;
#178 = CALENDAR_DATE ( 2021, 2, 12 ) ;
#179 = AXIS2_PLACEMENT_3D ( 'NONE', #7, #51, #138 ) ;
#180 = ORIENTED_EDGE ( 'NONE', *, *, #294, .F. ) ;
#181 = APPROVAL_STATUS ( 'not_yet_approved' ) ;
#182 = DIRECTION ( 'NONE',  ( 0.0000000000000000000, 1.000000000000000000, 0.0000000000000000000 ) ) ;
#183 = DATE_AND_TIME ( #178, #83 ) ;
#184 = EDGE_LOOP ( 'NONE', ( #297 ) ) ;
#185 = ORIENTED_EDGE ( 'NONE', *, *, #157, .T. ) ;
#186 = EDGE_LOOP ( 'NONE', ( #180 ) ) ;
#187 = EDGE_CURVE ( 'NONE', #223, #223, #173, .T. ) ;
#188 = DIRECTION ( 'NONE',  ( -3.491481338843133355E-15, 1.224646799147353454E-16, -1.000000000000000000 ) ) ;
#189 = LOCAL_TIME ( 8, 16, 25.00000000000000000, #154 ) ;
#190 = DIRECTION ( 'NONE',  ( 4.275831445896959482E-31, 1.000000000000000000, 1.224646799147353454E-16 ) ) ;
#191 = CLOSED_SHELL ( 'NONE', ( #275, #115, #174, #37 ) ) ;
#192 = CIRCLE ( 'NONE', #272, 1.424999999999998712 ) ;
#193 = PLANE ( 'NONE',  #245 ) ;
#194 = CYLINDRICAL_SURFACE ( 'NONE', #107, 1.224999999999999201 ) ;
#195 = CC_DESIGN_DATE_AND_TIME_ASSIGNMENT ( #84, #209, ( #29 ) ) ;
#196 = FACE_BOUND ( 'NONE', #253, .T. ) ;
#197 = CIRCLE ( 'NONE', #179, 1.425000000000000044 ) ;
#198 = CC_DESIGN_DATE_AND_TIME_ASSIGNMENT ( #20, #207, ( #205 ) ) ;
#199 = VERTEX_POINT ( 'NONE', #242 ) ;
#200 = DIRECTION ( 'NONE',  ( 1.000000000000000000, 0.0000000000000000000, 0.0000000000000000000 ) ) ;
#201 = EDGE_CURVE ( 'NONE', #104, #104, #3, .T. ) ;
#202 =( NAMED_UNIT ( * ) SI_UNIT ( $, .STERADIAN. ) SOLID_ANGLE_UNIT ( ) );
#203 = CALENDAR_DATE ( 2021, 2, 12 ) ;
#204 = APPROVAL_ROLE ( '' ) ;
#205 = SECURITY_CLASSIFICATION ( '', '', #293 ) ;
#206 = AXIS2_PLACEMENT_3D ( 'NONE', #269, #79, #264 ) ;
#207 = DATE_TIME_ROLE ( 'classification_date' ) ;
#208 = EDGE_LOOP ( 'NONE', ( #131 ) ) ;
#209 = DATE_TIME_ROLE ( 'creation_date' ) ;
#210 = ORIENTED_EDGE ( 'NONE', *, *, #137, .T. ) ;
#211 = ADVANCED_BREP_SHAPE_REPRESENTATION ( '200699', ( #100, #102, #34 ), #71 ) ;
#212 = FACE_OUTER_BOUND ( 'NONE', #184, .T. ) ;
#213 = ORIENTED_EDGE ( 'NONE', *, *, #176, .T. ) ;
#214 = AXIS2_PLACEMENT_3D ( 'NONE', #287, #116, #237 ) ;
#215 = CARTESIAN_POINT ( 'NONE',  ( 8.849961221477469775E-14, -3.104148534859897544E-15, 25.34729635533384595 ) ) ;
#216 = EDGE_CURVE ( 'NONE', #40, #40, #266, .T. ) ;
#217 = DIRECTION ( 'NONE',  ( -3.491481338843133355E-15, 1.224646799147353454E-16, -1.000000000000000000 ) ) ;
#218 = DIRECTION ( 'NONE',  ( -3.491481338843133355E-15, 1.224646799147353454E-16, -1.000000000000000000 ) ) ;
#219 = CARTESIAN_POINT ( 'NONE',  ( 2.119329172677781757E-13, 1.499999999999995559, 60.69999999999999574 ) ) ;
#220 = ORGANIZATION ( 'UNSPECIFIED', 'UNSPECIFIED', '' ) ;
#221 = CIRCLE ( 'NONE', #206, 1.500000000000002887 ) ;
#222 = CARTESIAN_POINT ( 'NONE',  ( 8.849961221477469775E-14, 1.255384493975577831, 25.34729635533384595 ) ) ;
#223 = VERTEX_POINT ( 'NONE', #172 ) ;
#224 = VERTEX_POINT ( 'NONE', #239 ) ;
#225 = APPROVAL ( #289, 'UNSPECIFIED' ) ;
#226 = DIRECTION ( 'NONE',  ( 0.0000000000000000000, -1.000000000000000000, 0.0000000000000000000 ) ) ;
#227 = CARTESIAN_POINT ( 'NONE',  ( 3.612429800294234159E-14, -1.267069808696350687E-15, 10.34641016151378423 ) ) ;
#228 = EDGE_LOOP ( 'NONE', ( #87 ) ) ;
#229 = CALENDAR_DATE ( 2021, 2, 12 ) ;
#230 = EDGE_LOOP ( 'NONE', ( #90 ) ) ;
#231 = ADVANCED_FACE ( 'NONE', ( #98, #33 ), #9, .F. ) ;
#232 = CONICAL_SURFACE ( 'NONE', #143, 1.224999999999998535, 0.5235987755982924874 ) ;
#233 = DIRECTION ( 'NONE',  ( 0.0000000000000000000, 1.000000000000000000, 0.0000000000000000000 ) ) ;
#234 = DIRECTION ( 'NONE',  ( 3.491481338843133355E-15, -1.224646799147353454E-16, 1.000000000000000000 ) ) ;
#235 = DIRECTION ( 'NONE',  ( -4.054589356604711069E-31, -1.000000000000000000, -1.141265444721584744E-16 ) ) ;
#236 = FACE_OUTER_BOUND ( 'NONE', #109, .T. ) ;
#237 = DIRECTION ( 'NONE',  ( 0.0000000000000000000, 1.000000000000000000, 0.0000000000000000000 ) ) ;
#238 = DIRECTION ( 'NONE',  ( -4.275831445896959482E-31, -1.000000000000000000, -1.224646799147353454E-16 ) ) ;
#239 = CARTESIAN_POINT ( 'NONE',  ( 8.728703347107833388E-16, 1.424999999999998712, 0.2500000000000000000 ) ) ;
#240 = APPROVAL_PERSON_ORGANIZATION ( #23, #12, #299 ) ;
#241 = AXIS2_PLACEMENT_3D ( 'NONE', #97, #303, #93 ) ;
#242 = CARTESIAN_POINT ( 'NONE',  ( 3.785471652766322713E-31, 1.175000000000001599, 1.084202172485504434E-16 ) ) ;
#243 = VERTEX_POINT ( 'NONE', #291 ) ;
#244 = CARTESIAN_POINT ( 'NONE',  ( 3.612429800294234159E-14, 1.224999999999997202, 10.34641016151378423 ) ) ;
#245 = AXIS2_PLACEMENT_3D ( 'NONE', #261, #30, #238 ) ;
#246 = PERSON_AND_ORGANIZATION_ROLE ( 'creator' ) ;
#247 = CARTESIAN_POINT ( 'NONE',  ( 3.491481338843133355E-14, 1.068578845146572040E-32, 10.00000000000000000 ) ) ;
#248 = ADVANCED_FACE ( 'NONE', ( #117, #121 ), #194, .T. ) ;
#249 = COORDINATED_UNIVERSAL_TIME_OFFSET ( 1, 0, .AHEAD. ) ;
#250 = ORIENTED_EDGE ( 'NONE', *, *, #137, .F. ) ;
#251 = CC_DESIGN_APPROVAL ( #12, ( #205 ) ) ;
#252 = DATE_AND_TIME ( #229, #189 ) ;
#253 = EDGE_LOOP ( 'NONE', ( #250 ) ) ;
#254 = EDGE_LOOP ( 'NONE', ( #152 ) ) ;
#255 = DIRECTION ( 'NONE',  ( -4.275831445896959482E-31, -1.000000000000000000, -1.224646799147353454E-16 ) ) ;
#256 = CC_DESIGN_APPROVAL ( #277, ( #161 ) ) ;
#257 = AXIS2_PLACEMENT_3D ( 'NONE', #171, #175, #142 ) ;
#258 = DIRECTION ( 'NONE',  ( 4.275831445896958607E-31, 1.000000000000000000, 1.224646799147353454E-16 ) ) ;
#259 = DIRECTION ( 'NONE',  ( 4.275831445896960358E-31, 1.000000000000000000, 1.224646799147353454E-16 ) ) ;
#260 = CARTESIAN_POINT ( 'NONE',  ( 2.129803616694311221E-13, -7.470345474798856659E-15, 61.00000000000000000 ) ) ;
#261 = CARTESIAN_POINT ( 'NONE',  ( 3.491481338843133355E-14, 1.068578845146572040E-32, 10.00000000000000000 ) ) ;
#262 = PERSON ( 'UNSPECIFIED', 'UNSPECIFIED', 'UNSPECIFIED', ('UNSPECIFIED'), ('UNSPECIFIED'), ('UNSPECIFIED') ) ;
#263 = FACE_OUTER_BOUND ( 'NONE', #62, .T. ) ;
#264 = DIRECTION ( 'NONE',  ( 0.0000000000000000000, 1.000000000000000000, 0.0000000000000000000 ) ) ;
#265 = CARTESIAN_POINT ( 'NONE',  ( 2.129803616694311221E-13, 1.199999999999995515, 61.00000000000000000 ) ) ;
#266 = CIRCLE ( 'NONE', #149, 1.255384493975580940 ) ;
#267 = AXIS2_PLACEMENT_3D ( 'NONE', #133, #25, #182 ) ;
#268 = AXIS2_PLACEMENT_3D ( 'NONE', #167, #53, #259 ) ;
#269 = CARTESIAN_POINT ( 'NONE',  ( 2.119329172677781757E-13, -7.433606070824434221E-15, 60.69999999999999574 ) ) ;
#270 = APPROVAL_DATE_TIME ( #123, #225 ) ;
#271 = AXIS2_PLACEMENT_3D ( 'NONE', #274, #126, #226 ) ;
#272 = AXIS2_PLACEMENT_3D ( 'NONE', #50, #188, #76 ) ;
#273 = PERSON_AND_ORGANIZATION ( #262, #220 ) ;
#274 = CARTESIAN_POINT ( 'NONE',  ( 9.334328656934240837E-14, -3.274041761223206859E-15, 26.73457982744675121 ) ) ;
#275 = ADVANCED_FACE ( 'NONE', ( #2 ), #49, .F. ) ;
#276 = FACE_OUTER_BOUND ( 'NONE', #110, .T. ) ;
#277 = APPROVAL ( #181, 'UNSPECIFIED' ) ;
#278 = ORIENTED_EDGE ( 'NONE', *, *, #216, .T. ) ;
#279 = PERSON_AND_ORGANIZATION ( #262, #220 ) ;
#280 = EDGE_LOOP ( 'NONE', ( #185 ) ) ;
#281 = CARTESIAN_POINT ( 'NONE',  ( -1.238630296162610963E-31, 4.344530244647059717E-33, -3.547578165126377600E-17 ) ) ;
#282 = AXIS2_PLACEMENT_3D ( 'NONE', #114, #31, #235 ) ;
#283 = LOCAL_TIME ( 8, 16, 25.00000000000000000, #39 ) ;
#284 = DIRECTION ( 'NONE',  ( 4.275831445896959482E-31, 1.000000000000000000, 1.224646799147353454E-16 ) ) ;
#285 = DIRECTION ( 'NONE',  ( -3.491481338843133355E-15, 1.224646799147353454E-16, -1.000000000000000000 ) ) ;
#286 = CARTESIAN_POINT ( 'NONE',  ( 0.0000000000000000000, 0.0000000000000000000, 0.0000000000000000000 ) ) ;
#287 = CARTESIAN_POINT ( 'NONE',  ( 3.491481338843133355E-14, -1.224646799147353454E-15, 10.00000000000000000 ) ) ;
#288 = CC_DESIGN_APPROVAL ( #225, ( #29 ) ) ;
#289 = APPROVAL_STATUS ( 'not_yet_approved' ) ;
#290 = CIRCLE ( 'NONE', #66, 1.499999999999996003 ) ;
#291 = CARTESIAN_POINT ( 'NONE',  ( 9.334328656934240837E-14, 1.499999999999992673, 26.73457982744675121 ) ) ;
#292 = DIRECTION ( 'NONE',  ( 0.0000000000000000000, 0.0000000000000000000, 1.000000000000000000 ) ) ;
#293 = SECURITY_CLASSIFICATION_LEVEL ( 'unclassified' ) ;
#294 = EDGE_CURVE ( 'NONE', #55, #55, #221, .T. ) ;
#295 = AXIS2_PLACEMENT_3D ( 'NONE', #164, #218, #75 ) ;
#296 = ADVANCED_FACE ( 'NONE', ( #58 ), #38, .F. ) ;
#297 = ORIENTED_EDGE ( 'NONE', *, *, #163, .F. ) ;
#298 = EDGE_LOOP ( 'NONE', ( #210 ) ) ;
#299 = APPROVAL_ROLE ( '' ) ;
#300 = DESIGN_CONTEXT ( 'detailed design', #125, 'design' ) ;
#301 = EDGE_LOOP ( 'NONE', ( #302 ) ) ;
#302 = ORIENTED_EDGE ( 'NONE', *, *, #157, .F. ) ;
#303 = DIRECTION ( 'NONE',  ( -3.491481338843133355E-15, 1.224646799147353454E-16, -1.000000000000000000 ) ) ;
ENDSEC;
END-ISO-10303-21;
