ISO-10303-21;
HEADER;
FILE_DESCRIPTION (( 'STEP AP203' ),
    '1' );
FILE_NAME ('200698.step',
    '2021-12-01T14:03:35',
    ( '' ),
    ( '' ),
    'SwSTEP 2.0',
    'SolidWorks 2019',
    '' );
FILE_SCHEMA (( 'CONFIG_CONTROL_DESIGN' ));
ENDSEC;

DATA;
#1 = EDGE_LOOP ( 'NONE', ( #269 ) ) ;
#2 = CC_DESIGN_APPROVAL ( #210, ( #131 ) ) ;
#3 = EDGE_CURVE ( 'NONE', #198, #198, #254, .T. ) ;
#4 = PLANE ( 'NONE',  #47 ) ;
#5 = CARTESIAN_POINT ( 'NONE',  ( 2.793185071074506684E-14, -9.797174393178825657E-16, 8.000000000000000000 ) ) ;
#6 = PLANE ( 'NONE',  #162 ) ;
#7 = ORIENTED_EDGE ( 'NONE', *, *, #98, .T. ) ;
#8 = CARTESIAN_POINT ( 'NONE',  ( 7.335818149155665618E-14, -2.573058637187857101E-15, 21.01061823686078966 ) ) ;
#9 = CONICAL_SURFACE ( 'NONE', #202, 1.200000000000001732, 0.7853981633974453924 ) ;
#10 = AXIS2_PLACEMENT_3D ( 'NONE', #236, #128, #29 ) ;
#11 = FACE_BOUND ( 'NONE', #107, .T. ) ;
#12 = APPLICATION_CONTEXT ( 'configuration controlled 3d designs of mechanical parts and assemblies' ) ;
#13 = CARTESIAN_POINT ( 'NONE',  ( -3.785471652766321837E-31, 1.005662432702594256, -1.084202172485504187E-16 ) ) ;
#14 = AXIS2_PLACEMENT_3D ( 'NONE', #16, #129, #33 ) ;
#15 = CALENDAR_DATE ( 2021, 1, 12 ) ;
#16 = CARTESIAN_POINT ( 'NONE',  ( -8.085514706473307788E-31, 2.836016791664216910E-32, -2.315783451717477003E-16 ) ) ;
#17 = ADVANCED_FACE ( 'NONE', ( #302, #244 ), #226, .T. ) ;
#18 = CC_DESIGN_APPROVAL ( #158, ( #30 ) ) ;
#19 = DATE_TIME_ROLE ( 'creation_date' ) ;
#20 = CIRCLE ( 'NONE', #31, 1.499999999999996669 ) ;
#21 = DIRECTION ( 'NONE',  ( 0.0000000000000000000, 1.000000000000000000, 0.0000000000000000000 ) ) ;
#22 = FACE_OUTER_BOUND ( 'NONE', #192, .T. ) ;
#23 = ORIENTED_EDGE ( 'NONE', *, *, #123, .T. ) ;
#24 = DIRECTION ( 'NONE',  ( -4.275831445896958607E-31, -1.000000000000000000, -1.224646799147353207E-16 ) ) ;
#25 = ORIENTED_EDGE ( 'NONE', *, *, #116, .F. ) ;
#26 = AXIS2_PLACEMENT_3D ( 'NONE', #204, #100, #186 ) ;
#27 = EDGE_LOOP ( 'NONE', ( #80 ) ) ;
#28 = CC_DESIGN_PERSON_AND_ORGANIZATION_ASSIGNMENT ( #228, #164, ( #266 ) ) ;
#29 = DIRECTION ( 'NONE',  ( 0.0000000000000000000, 1.000000000000000000, 0.0000000000000000000 ) ) ;
#30 = SECURITY_CLASSIFICATION ( '', '', #255 ) ;
#31 = AXIS2_PLACEMENT_3D ( 'NONE', #8, #183, #295 ) ;
#32 = APPROVAL_ROLE ( '' ) ;
#33 = DIRECTION ( 'NONE',  ( 4.275831445896958607E-31, 1.000000000000000000, 1.224646799147353454E-16 ) ) ;
#34 = VERTEX_POINT ( 'NONE', #112 ) ;
#35 = ADVANCED_FACE ( 'NONE', ( #214, #267 ), #9, .T. ) ;
#36 =( NAMED_UNIT ( * ) SI_UNIT ( $, .STERADIAN. ) SOLID_ANGLE_UNIT ( ) );
#37 = ORIENTED_EDGE ( 'NONE', *, *, #98, .F. ) ;
#38 = AXIS2_PLACEMENT_3D ( 'NONE', #5, #133, #216 ) ;
#39 = CARTESIAN_POINT ( 'NONE',  ( 2.793185071074506684E-14, 8.623618750305663455E-33, 8.000000000000000000 ) ) ;
#40 = EDGE_CURVE ( 'NONE', #59, #59, #196, .T. ) ;
#41 = DATE_AND_TIME ( #46, #264 ) ;
#42 = PERSON_AND_ORGANIZATION_ROLE ( 'classification_officer' ) ;
#43 = DATE_TIME_ROLE ( 'classification_date' ) ;
#44 = CARTESIAN_POINT ( 'NONE',  ( 6.284666409917640040E-14, -2.168404344971008868E-15, 18.00000000000000000 ) ) ;
#45 = ORIENTED_EDGE ( 'NONE', *, *, #123, .F. ) ;
#46 = CALENDAR_DATE ( 2021, 1, 12 ) ;
#47 = AXIS2_PLACEMENT_3D ( 'NONE', #39, #77, #24 ) ;
#48 = CARTESIAN_POINT ( 'NONE',  ( 7.335818149155665618E-14, -2.573058637187857101E-15, 21.01061823686078966 ) ) ;
#49 = EDGE_LOOP ( 'NONE', ( #247 ) ) ;
#50 = CC_DESIGN_PERSON_AND_ORGANIZATION_ASSIGNMENT ( #293, #221, ( #103 ) ) ;
#51 = DIRECTION ( 'NONE',  ( 0.0000000000000000000, 1.000000000000000000, 0.0000000000000000000 ) ) ;
#52 = EDGE_LOOP ( 'NONE', ( #37 ) ) ;
#53 = AXIS2_PLACEMENT_3D ( 'NONE', #126, #105, #21 ) ;
#54 = ORIENTED_EDGE ( 'NONE', *, *, #116, .T. ) ;
#55 = LOCAL_TIME ( 15, 3, 35.00000000000000000, #259 ) ;
#56 = CC_DESIGN_PERSON_AND_ORGANIZATION_ASSIGNMENT ( #297, #233, ( #131 ) ) ;
#57 = ORIENTED_EDGE ( 'NONE', *, *, #40, .T. ) ;
#58 = CARTESIAN_POINT ( 'NONE',  ( 1.745740669421566678E-13, -6.123233995736766085E-15, 50.00000000000000000 ) ) ;
#59 = VERTEX_POINT ( 'NONE', #268 ) ;
#60 = PERSON_AND_ORGANIZATION ( #212, #234 ) ;
#61 = FACE_OUTER_BOUND ( 'NONE', #290, .T. ) ;
#62 = ORIENTED_EDGE ( 'NONE', *, *, #3, .F. ) ;
#63 = ADVANCED_FACE ( 'NONE', ( #140, #298 ), #274, .T. ) ;
#64 = DIRECTION ( 'NONE',  ( 4.275831445896958607E-31, 1.000000000000000000, 1.224646799147353207E-16 ) ) ;
#65 = VERTEX_POINT ( 'NONE', #134 ) ;
#66 = MANIFOLD_SOLID_BREP ( 'Corps-Déplacer/Copier1[2]', #76 ) ;
#67 = APPROVAL_PERSON_ORGANIZATION ( #144, #158, #258 ) ;
#68 = CARTESIAN_POINT ( 'NONE',  ( 2.883896417162832445E-14, 0.9999999999999976685, 8.259807621135337286 ) ) ;
#69 = AXIS2_PLACEMENT_3D ( 'NONE', #156, #271, #86 ) ;
#70 = ADVANCED_FACE ( 'NONE', ( #230 ), #125, .F. ) ;
#71 = DATE_AND_TIME ( #92, #55 ) ;
#72 = COORDINATED_UNIVERSAL_TIME_OFFSET ( 1, 0, .AHEAD. ) ;
#73 = APPROVAL ( #279, 'UNSPECIFIED' ) ;
#74 = COORDINATED_UNIVERSAL_TIME_OFFSET ( 1, 0, .AHEAD. ) ;
#75 = FACE_OUTER_BOUND ( 'NONE', #27, .T. ) ;
#76 = CLOSED_SHELL ( 'NONE', ( #273, #17, #231, #180 ) ) ;
#77 = DIRECTION ( 'NONE',  ( 3.491481338843133355E-15, -1.224646799147353207E-16, 1.000000000000000000 ) ) ;
#78 = LOCAL_TIME ( 15, 3, 35.00000000000000000, #91 ) ;
#79 = CLOSED_SHELL ( 'NONE', ( #70, #135, #260, #89, #174, #63, #35, #127 ) ) ;
#80 = ORIENTED_EDGE ( 'NONE', *, *, #278, .T. ) ;
#81 = DESIGN_CONTEXT ( 'detailed design', #201, 'design' ) ;
#82 = CARTESIAN_POINT ( 'NONE',  ( 2.793185071074506684E-14, 1.149999999999998579, 8.000000000000000000 ) ) ;
#83 = VERTEX_POINT ( 'NONE', #82 ) ;
#84 = APPROVAL_PERSON_ORGANIZATION ( #60, #210, #32 ) ;
#85 = DIRECTION ( 'NONE',  ( 4.275831445896958607E-31, 1.000000000000000000, 1.224646799147353207E-16 ) ) ;
#86 = DIRECTION ( 'NONE',  ( 1.000000000000000000, 0.0000000000000000000, 0.0000000000000000000 ) ) ;
#87 = DIRECTION ( 'NONE',  ( -3.491481338843133355E-15, 1.224646799147353207E-16, -1.000000000000000000 ) ) ;
#88 = CARTESIAN_POINT ( 'NONE',  ( 1.735266225405037467E-13, 1.499999999999995559, 49.70000000000000284 ) ) ;
#89 = ADVANCED_FACE ( 'NONE', ( #22, #281 ), #182, .F. ) ;
#90 = DIRECTION ( 'NONE',  ( 3.491481338843133355E-15, -1.224646799147353207E-16, 1.000000000000000000 ) ) ;
#91 = COORDINATED_UNIVERSAL_TIME_OFFSET ( 1, 0, .AHEAD. ) ;
#92 = CALENDAR_DATE ( 2021, 1, 12 ) ;
#93 = AXIS2_PLACEMENT_3D ( 'NONE', #229, #218, #64 ) ;
#94 = PERSON_AND_ORGANIZATION ( #212, #234 ) ;
#95 = DIRECTION ( 'NONE',  ( -4.275831445896958607E-31, -1.000000000000000000, -1.224646799147353207E-16 ) ) ;
#96 = DIRECTION ( 'NONE',  ( -3.491481338843133355E-15, 1.224646799147353207E-16, -1.000000000000000000 ) ) ;
#97 = APPROVAL_ROLE ( '' ) ;
#98 = EDGE_CURVE ( 'NONE', #83, #83, #130, .T. ) ;
#99 = FACE_OUTER_BOUND ( 'NONE', #237, .T. ) ;
#100 = DIRECTION ( 'NONE',  ( 3.491481338843133355E-15, -1.224646799147353207E-16, 1.000000000000000000 ) ) ;
#101 = ORIENTED_EDGE ( 'NONE', *, *, #167, .T. ) ;
#102 = FACE_OUTER_BOUND ( 'NONE', #211, .T. ) ;
#103 = PRODUCT ( '200698', '200698', '', ( #114 ) ) ;
#104 = ORIENTED_EDGE ( 'NONE', *, *, #40, .F. ) ;
#105 = DIRECTION ( 'NONE',  ( -3.491481338843133355E-15, 1.224646799147353207E-16, -1.000000000000000000 ) ) ;
#106 = UNCERTAINTY_MEASURE_WITH_UNIT (LENGTH_MEASURE( 1.000000000000000082E-05 ), #181, 'distance_accuracy_value', 'NONE');
#107 = EDGE_LOOP ( 'NONE', ( #109 ) ) ;
#108 = AXIS2_PLACEMENT_3D ( 'NONE', #110, #96, #283 ) ;
#109 = ORIENTED_EDGE ( 'NONE', *, *, #217, .T. ) ;
#110 = CARTESIAN_POINT ( 'NONE',  ( 8.728703347107829444E-16, -3.061616997868381785E-17, 0.2499999999999998890 ) ) ;
#111 = VERTEX_POINT ( 'NONE', #13 ) ;
#112 = CARTESIAN_POINT ( 'NONE',  ( 2.793185071074506684E-14, 1.149999999999998579, 8.000000000000000000 ) ) ;
#113 = FACE_OUTER_BOUND ( 'NONE', #189, .T. ) ;
#114 = MECHANICAL_CONTEXT ( 'NONE', #12, 'mechanical' ) ;
#115 = AXIS2_PLACEMENT_3D ( 'NONE', #44, #166, #124 ) ;
#116 = EDGE_CURVE ( 'NONE', #111, #111, #208, .T. ) ;
#117 = VERTEX_POINT ( 'NONE', #179 ) ;
#118 = PERSON_AND_ORGANIZATION_ROLE ( 'creator' ) ;
#119 = AXIS2_PLACEMENT_3D ( 'NONE', #190, #152, #172 ) ;
#120 = ORIENTED_EDGE ( 'NONE', *, *, #188, .T. ) ;
#121 = PERSON_AND_ORGANIZATION ( #212, #234 ) ;
#122 = AXIS2_PLACEMENT_3D ( 'NONE', #275, #138, #169 ) ;
#123 = EDGE_CURVE ( 'NONE', #34, #34, #240, .T. ) ;
#124 = DIRECTION ( 'NONE',  ( 4.275831445896958607E-31, 1.000000000000000000, 1.224646799147353207E-16 ) ) ;
#125 = PLANE ( 'NONE',  #270 ) ;
#126 = CARTESIAN_POINT ( 'NONE',  ( 1.735266225405037467E-13, -6.086494591762345225E-15, 49.70000000000000284 ) ) ;
#127 = ADVANCED_FACE ( 'NONE', ( #113 ), #195, .F. ) ;
#128 = DIRECTION ( 'NONE',  ( -3.491481338843133355E-15, 1.224646799147353207E-16, -1.000000000000000000 ) ) ;
#129 = DIRECTION ( 'NONE',  ( -3.491481338843133355E-15, 1.224646799147353207E-16, -1.000000000000000000 ) ) ;
#130 = CIRCLE ( 'NONE', #142, 1.149999999999999689 ) ;
#131 = PRODUCT_DEFINITION ( 'UNKNOWN', '', #266, #81 ) ;
#132 = APPROVAL_DATE_TIME ( #220, #210 ) ;
#133 = DIRECTION ( 'NONE',  ( -3.491481338843133355E-15, 1.224646799147353207E-16, -1.000000000000000000 ) ) ;
#134 = CARTESIAN_POINT ( 'NONE',  ( 7.335818149155665618E-14, 1.499999999999994005, 21.01061823686078966 ) ) ;
#135 = ADVANCED_FACE ( 'NONE', ( #292, #11 ), #219, .T. ) ;
#136 = AXIS2_PLACEMENT_3D ( 'NONE', #191, #291, #51 ) ;
#137 = CARTESIAN_POINT ( 'NONE',  ( -4.042757353236653894E-31, 1.418008395832108455E-32, -1.157891725858738502E-16 ) ) ;
#138 = DIRECTION ( 'NONE',  ( -3.491481338843133355E-15, 1.224646799147353207E-16, -1.000000000000000000 ) ) ;
#139 = APPLICATION_PROTOCOL_DEFINITION ( 'international standard', 'config_control_design', 1994, #12 ) ;
#140 = FACE_OUTER_BOUND ( 'NONE', #148, .T. ) ;
#141 = DATE_AND_TIME ( #253, #225 ) ;
#142 = AXIS2_PLACEMENT_3D ( 'NONE', #203, #280, #257 ) ;
#143 = APPROVAL_DATE_TIME ( #41, #158 ) ;
#144 = PERSON_AND_ORGANIZATION ( #212, #234 ) ;
#145 = AXIS2_PLACEMENT_3D ( 'NONE', #193, #87, #85 ) ;
#146 = DIRECTION ( 'NONE',  ( 0.0000000000000000000, -1.000000000000000000, 0.0000000000000000000 ) ) ;
#147 = DIRECTION ( 'NONE',  ( 3.491481338843133355E-15, -1.224646799147353207E-16, 1.000000000000000000 ) ) ;
#148 = EDGE_LOOP ( 'NONE', ( #213 ) ) ;
#149 = CC_DESIGN_PERSON_AND_ORGANIZATION_ASSIGNMENT ( #168, #118, ( #266 ) ) ;
#150 = CIRCLE ( 'NONE', #119, 1.030384493975581073 ) ;
#151 = ORIENTED_EDGE ( 'NONE', *, *, #188, .F. ) ;
#152 = DIRECTION ( 'NONE',  ( -3.491481338843133355E-15, 1.224646799147353207E-16, -1.000000000000000000 ) ) ;
#153 = EDGE_LOOP ( 'NONE', ( #7 ) ) ;
#154 = DIRECTION ( 'NONE',  ( -3.491481338843133355E-15, 1.224646799147353207E-16, -1.000000000000000000 ) ) ;
#155 = VERTEX_POINT ( 'NONE', #272 ) ;
#156 = CARTESIAN_POINT ( 'NONE',  ( 0.0000000000000000000, 0.0000000000000000000, 0.0000000000000000000 ) ) ;
#157 = CARTESIAN_POINT ( 'NONE',  ( 6.284666409917640040E-14, 0.9999999999999974465, 18.00000000000000000 ) ) ;
#158 = APPROVAL ( #184, 'UNSPECIFIED' ) ;
#159 = COORDINATED_UNIVERSAL_TIME_OFFSET ( 1, 0, .AHEAD. ) ;
#160 = CC_DESIGN_APPROVAL ( #73, ( #266 ) ) ;
#161 = DIRECTION ( 'NONE',  ( -3.491481338843133355E-15, 1.224646799147353207E-16, -1.000000000000000000 ) ) ;
#162 = AXIS2_PLACEMENT_3D ( 'NONE', #137, #90, #248 ) ;
#163 = MANIFOLD_SOLID_BREP ( 'Corps-Déplacer/Copier1[1]', #79 ) ;
#164 = PERSON_AND_ORGANIZATION_ROLE ( 'design_supplier' ) ;
#165 = APPROVAL_DATE_TIME ( #141, #73 ) ;
#166 = DIRECTION ( 'NONE',  ( -3.491481338843133355E-15, 1.224646799147353207E-16, -1.000000000000000000 ) ) ;
#167 = EDGE_CURVE ( 'NONE', #117, #117, #265, .T. ) ;
#168 = PERSON_AND_ORGANIZATION ( #212, #234 ) ;
#169 = DIRECTION ( 'NONE',  ( 0.0000000000000000000, 1.000000000000000000, 0.0000000000000000000 ) ) ;
#170 = AXIS2_PLACEMENT_3D ( 'NONE', #287, #285, #206 ) ;
#171 = DIRECTION ( 'NONE',  ( 3.491481338843133355E-15, -1.224646799147353207E-16, 1.000000000000000000 ) ) ;
#172 = DIRECTION ( 'NONE',  ( 0.0000000000000000000, 1.000000000000000000, 0.0000000000000000000 ) ) ;
#173 = AXIS2_PLACEMENT_3D ( 'NONE', #262, #199, #296 ) ;
#174 = ADVANCED_FACE ( 'NONE', ( #288, #75 ), #251, .T. ) ;
#175 = APPLICATION_PROTOCOL_DEFINITION ( 'international standard', 'config_control_design', 1994, #201 ) ;
#176 =( GEOMETRIC_REPRESENTATION_CONTEXT ( 3 ) GLOBAL_UNCERTAINTY_ASSIGNED_CONTEXT ( ( #106 ) ) GLOBAL_UNIT_ASSIGNED_CONTEXT ( ( #181, #178, #36 ) ) REPRESENTATION_CONTEXT ( 'NONE', 'WORKASPACE' ) );
#177 = EDGE_LOOP ( 'NONE', ( #151 ) ) ;
#178 =( NAMED_UNIT ( * ) PLANE_ANGLE_UNIT ( ) SI_UNIT ( $, .RADIAN. ) );
#179 = CARTESIAN_POINT ( 'NONE',  ( 1.745740669421566678E-13, 1.199999999999995515, 50.00000000000000000 ) ) ;
#180 = ADVANCED_FACE ( 'NONE', ( #238 ), #4, .T. ) ;
#181 =( LENGTH_UNIT ( ) NAMED_UNIT ( * ) SI_UNIT ( .MILLI., .METRE. ) );
#182 = TOROIDAL_SURFACE ( 'NONE', #115, 2.999999999999999556, 2.000000000000000000 ) ;
#183 = DIRECTION ( 'NONE',  ( -3.491481338843133355E-15, 1.224646799147353207E-16, -1.000000000000000000 ) ) ;
#184 = APPROVAL_STATUS ( 'not_yet_approved' ) ;
#185 = AXIS2_PLACEMENT_3D ( 'NONE', #48, #171, #146 ) ;
#186 = DIRECTION ( 'NONE',  ( -5.024165072314534367E-31, -1.000000000000000000, -1.414176746720224879E-16 ) ) ;
#187 = CIRCLE ( 'NONE', #136, 0.9999999999999986677 ) ;
#188 = EDGE_CURVE ( 'NONE', #155, #155, #150, .T. ) ;
#189 = EDGE_LOOP ( 'NONE', ( #243 ) ) ;
#190 = CARTESIAN_POINT ( 'NONE',  ( 6.405924284287275164E-14, -2.246895775456749140E-15, 18.34729635533384595 ) ) ;
#191 = CARTESIAN_POINT ( 'NONE',  ( 2.883896417162832445E-14, -1.011534696479630343E-15, 8.259807621135337286 ) ) ;
#192 = EDGE_LOOP ( 'NONE', ( #62 ) ) ;
#193 = CARTESIAN_POINT ( 'NONE',  ( 1.745740669421566678E-13, 8.998558695971067645E-33, 50.00000000000000000 ) ) ;
#194 = FACE_OUTER_BOUND ( 'NONE', #261, .T. ) ;
#195 = PLANE ( 'NONE',  #145 ) ;
#196 = CIRCLE ( 'NONE', #108, 1.149999999999998579 ) ;
#197 = CC_DESIGN_DATE_AND_TIME_ASSIGNMENT ( #282, #43, ( #30 ) ) ;
#198 = VERTEX_POINT ( 'NONE', #157 ) ;
#199 = DIRECTION ( 'NONE',  ( -3.491481338843133355E-15, 1.224646799147353207E-16, -1.000000000000000000 ) ) ;
#200 = CC_DESIGN_SECURITY_CLASSIFICATION ( #30, ( #266 ) ) ;
#201 = APPLICATION_CONTEXT ( 'configuration controlled 3d designs of mechanical parts and assemblies' ) ;
#202 = AXIS2_PLACEMENT_3D ( 'NONE', #58, #154, #215 ) ;
#203 = CARTESIAN_POINT ( 'NONE',  ( 2.793185071074506684E-14, -9.797174393178825657E-16, 8.000000000000000000 ) ) ;
#204 = CARTESIAN_POINT ( 'NONE',  ( 8.728703347107829444E-16, -3.061616997868381785E-17, 0.2499999999999998890 ) ) ;
#205 = EDGE_CURVE ( 'NONE', #245, #245, #303, .T. ) ;
#206 = DIRECTION ( 'NONE',  ( 0.0000000000000000000, 1.000000000000000000, 0.0000000000000000000 ) ) ;
#207 = EDGE_LOOP ( 'NONE', ( #25 ) ) ;
#208 = CIRCLE ( 'NONE', #14, 1.005662432702594256 ) ;
#209 = EDGE_LOOP ( 'NONE', ( #227 ) ) ;
#210 = APPROVAL ( #246, 'UNSPECIFIED' ) ;
#211 = EDGE_LOOP ( 'NONE', ( #23 ) ) ;
#212 = PERSON ( 'UNSPECIFIED', 'UNSPECIFIED', 'UNSPECIFIED', ('UNSPECIFIED'), ('UNSPECIFIED'), ('UNSPECIFIED') ) ;
#213 = ORIENTED_EDGE ( 'NONE', *, *, #278, .F. ) ;
#214 = FACE_OUTER_BOUND ( 'NONE', #49, .T. ) ;
#215 = DIRECTION ( 'NONE',  ( 0.0000000000000000000, 1.000000000000000000, 0.0000000000000000000 ) ) ;
#216 = DIRECTION ( 'NONE',  ( 0.0000000000000000000, 1.000000000000000000, 0.0000000000000000000 ) ) ;
#217 = EDGE_CURVE ( 'NONE', #276, #276, #187, .T. ) ;
#218 = DIRECTION ( 'NONE',  ( -3.491481338843133355E-15, 1.224646799147353207E-16, -1.000000000000000000 ) ) ;
#219 = CONICAL_SURFACE ( 'NONE', #122, 0.9999999999999986677, 0.5235987755982934866 ) ;
#220 = DATE_AND_TIME ( #250, #277 ) ;
#221 = PERSON_AND_ORGANIZATION_ROLE ( 'design_owner' ) ;
#222 = CARTESIAN_POINT ( 'NONE',  ( 0.0000000000000000000, 0.0000000000000000000, 0.0000000000000000000 ) ) ;
#223 = SHAPE_DEFINITION_REPRESENTATION ( #301, #263 ) ;
#224 = CYLINDRICAL_SURFACE ( 'NONE', #93, 1.149999999999999023 ) ;
#225 = LOCAL_TIME ( 15, 3, 35.00000000000000000, #74 ) ;
#226 = CONICAL_SURFACE ( 'NONE', #26, 1.149999999999998579, 0.5235987755982924874 ) ;
#227 = ORIENTED_EDGE ( 'NONE', *, *, #205, .T. ) ;
#228 = PERSON_AND_ORGANIZATION ( #212, #234 ) ;
#229 = CARTESIAN_POINT ( 'NONE',  ( 0.0000000000000000000, 0.0000000000000000000, 0.0000000000000000000 ) ) ;
#230 = FACE_OUTER_BOUND ( 'NONE', #153, .T. ) ;
#231 = ADVANCED_FACE ( 'NONE', ( #61, #102 ), #224, .T. ) ;
#232 = FACE_OUTER_BOUND ( 'NONE', #1, .T. ) ;
#233 = PERSON_AND_ORGANIZATION_ROLE ( 'creator' ) ;
#234 = ORGANIZATION ( 'UNSPECIFIED', 'UNSPECIFIED', '' ) ;
#235 = ORIENTED_EDGE ( 'NONE', *, *, #217, .F. ) ;
#236 = CARTESIAN_POINT ( 'NONE',  ( 6.284666409917640040E-14, -2.204364238465235428E-15, 18.00000000000000000 ) ) ;
#237 = EDGE_LOOP ( 'NONE', ( #235 ) ) ;
#238 = FACE_OUTER_BOUND ( 'NONE', #241, .T. ) ;
#239 = EDGE_LOOP ( 'NONE', ( #101 ) ) ;
#240 = CIRCLE ( 'NONE', #38, 1.149999999999999689 ) ;
#241 = EDGE_LOOP ( 'NONE', ( #45 ) ) ;
#242 = EDGE_LOOP ( 'NONE', ( #57 ) ) ;
#243 = ORIENTED_EDGE ( 'NONE', *, *, #167, .F. ) ;
#244 = FACE_OUTER_BOUND ( 'NONE', #242, .T. ) ;
#245 = VERTEX_POINT ( 'NONE', #88 ) ;
#246 = APPROVAL_STATUS ( 'not_yet_approved' ) ;
#247 = ORIENTED_EDGE ( 'NONE', *, *, #205, .F. ) ;
#248 = DIRECTION ( 'NONE',  ( -4.275831445896958607E-31, -1.000000000000000000, -1.224646799147353207E-16 ) ) ;
#249 = CYLINDRICAL_SURFACE ( 'NONE', #173, 0.9999999999999991118 ) ;
#250 = CALENDAR_DATE ( 2021, 1, 12 ) ;
#251 = CONICAL_SURFACE ( 'NONE', #185, 1.499999999999996669, 0.1745329251994261477 ) ;
#252 = APPROVAL_PERSON_ORGANIZATION ( #121, #73, #97 ) ;
#253 = CALENDAR_DATE ( 2021, 1, 12 ) ;
#254 = CIRCLE ( 'NONE', #10, 0.9999999999999995559 ) ;
#255 = SECURITY_CLASSIFICATION_LEVEL ( 'unclassified' ) ;
#256 = CC_DESIGN_PERSON_AND_ORGANIZATION_ASSIGNMENT ( #94, #42, ( #30 ) ) ;
#257 = DIRECTION ( 'NONE',  ( 0.0000000000000000000, 1.000000000000000000, 0.0000000000000000000 ) ) ;
#258 = APPROVAL_ROLE ( '' ) ;
#259 = COORDINATED_UNIVERSAL_TIME_OFFSET ( 1, 0, .AHEAD. ) ;
#260 = ADVANCED_FACE ( 'NONE', ( #99, #232 ), #249, .T. ) ;
#261 = EDGE_LOOP ( 'NONE', ( #54 ) ) ;
#262 = CARTESIAN_POINT ( 'NONE',  ( 0.0000000000000000000, 0.0000000000000000000, 0.0000000000000000000 ) ) ;
#263 = ADVANCED_BREP_SHAPE_REPRESENTATION ( '200698', ( #163, #66, #69 ), #176 ) ;
#264 = LOCAL_TIME ( 15, 3, 35.00000000000000000, #72 ) ;
#265 = CIRCLE ( 'NONE', #170, 1.200000000000001732 ) ;
#266 = PRODUCT_DEFINITION_FORMATION_WITH_SPECIFIED_SOURCE ( 'ANY', '', #103, .NOT_KNOWN. ) ;
#267 = FACE_BOUND ( 'NONE', #239, .T. ) ;
#268 = CARTESIAN_POINT ( 'NONE',  ( 8.728703347107835360E-16, 1.149999999999998579, 0.2500000000000000555 ) ) ;
#269 = ORIENTED_EDGE ( 'NONE', *, *, #3, .T. ) ;
#270 = AXIS2_PLACEMENT_3D ( 'NONE', #286, #147, #95 ) ;
#271 = DIRECTION ( 'NONE',  ( 0.0000000000000000000, 0.0000000000000000000, 1.000000000000000000 ) ) ;
#272 = CARTESIAN_POINT ( 'NONE',  ( 6.405924284287275164E-14, 1.030384493975578852, 18.34729635533384595 ) ) ;
#273 = ADVANCED_FACE ( 'NONE', ( #194 ), #6, .F. ) ;
#274 = CYLINDRICAL_SURFACE ( 'NONE', #294, 1.499999999999999112 ) ;
#275 = CARTESIAN_POINT ( 'NONE',  ( 2.883896417162832445E-14, -1.011534696479630343E-15, 8.259807621135337286 ) ) ;
#276 = VERTEX_POINT ( 'NONE', #68 ) ;
#277 = LOCAL_TIME ( 15, 3, 35.00000000000000000, #159 ) ;
#278 = EDGE_CURVE ( 'NONE', #65, #65, #20, .T. ) ;
#279 = APPROVAL_STATUS ( 'not_yet_approved' ) ;
#280 = DIRECTION ( 'NONE',  ( -3.491481338843133355E-15, 1.224646799147353207E-16, -1.000000000000000000 ) ) ;
#281 = FACE_OUTER_BOUND ( 'NONE', #289, .T. ) ;
#282 = DATE_AND_TIME ( #15, #78 ) ;
#283 = DIRECTION ( 'NONE',  ( 5.024165072314534367E-31, 1.000000000000000000, 1.414176746720224879E-16 ) ) ;
#284 = PRODUCT_RELATED_PRODUCT_CATEGORY ( 'detail', '', ( #103 ) ) ;
#285 = DIRECTION ( 'NONE',  ( -3.491481338843133355E-15, 1.224646799147353207E-16, -1.000000000000000000 ) ) ;
#286 = CARTESIAN_POINT ( 'NONE',  ( 2.793185071074506684E-14, 8.623618750305663455E-33, 8.000000000000000000 ) ) ;
#287 = CARTESIAN_POINT ( 'NONE',  ( 1.745740669421566678E-13, -6.123233995736766085E-15, 50.00000000000000000 ) ) ;
#288 = FACE_BOUND ( 'NONE', #177, .T. ) ;
#289 = EDGE_LOOP ( 'NONE', ( #120 ) ) ;
#290 = EDGE_LOOP ( 'NONE', ( #104 ) ) ;
#291 = DIRECTION ( 'NONE',  ( -3.491481338843133355E-15, 1.224646799147353207E-16, -1.000000000000000000 ) ) ;
#292 = FACE_OUTER_BOUND ( 'NONE', #52, .T. ) ;
#293 = PERSON_AND_ORGANIZATION ( #212, #234 ) ;
#294 = AXIS2_PLACEMENT_3D ( 'NONE', #222, #161, #299 ) ;
#295 = DIRECTION ( 'NONE',  ( 0.0000000000000000000, 1.000000000000000000, 0.0000000000000000000 ) ) ;
#296 = DIRECTION ( 'NONE',  ( 4.275831445896957731E-31, 1.000000000000000000, 1.224646799147353207E-16 ) ) ;
#297 = PERSON_AND_ORGANIZATION ( #212, #234 ) ;
#298 = FACE_OUTER_BOUND ( 'NONE', #209, .T. ) ;
#299 = DIRECTION ( 'NONE',  ( 4.275831445896958607E-31, 1.000000000000000000, 1.224646799147353454E-16 ) ) ;
#300 = CC_DESIGN_DATE_AND_TIME_ASSIGNMENT ( #71, #19, ( #131 ) ) ;
#301 = PRODUCT_DEFINITION_SHAPE ( 'NONE', 'NONE',  #131 ) ;
#302 = FACE_BOUND ( 'NONE', #207, .T. ) ;
#303 = CIRCLE ( 'NONE', #53, 1.500000000000001554 ) ;
ENDSEC;
END-ISO-10303-21;
